  0
SECTION
  2
HEADER
  9
$ACADVER
  1
AC1027
  9
$ACADMAINTVER
 70
     8
  9
$DWGCODEPAGE
  3
ANSI_1252
  9
$REQUIREDVERSIONS
160
                 0
  9
$INSBASE
 10
0.0
 20
0.0
 30
0.0
  9
$EXTMIN
 10
1.000000000000000E+20
 20
1.000000000000000E+20
 30
1.000000000000000E+20
  9
$EXTMAX
 10
-1.000000000000000E+20
 20
-1.000000000000000E+20
 30
-1.000000000000000E+20
  9
$LIMMIN
 10
0.0
 20
0.0
  9
$LIMMAX
 10
12.0
 20
9.0
  9
$ORTHOMODE
 70
     0
  9
$REGENMODE
 70
     1
  9
$FILLMODE
 70
     1
  9
$QTEXTMODE
 70
     0
  9
$MIRRTEXT
 70
     1
  9
$LTSCALE
 40
1.0
  9
$ATTMODE
 70
     1
  9
$TEXTSIZE
 40
0.2
  9
$TRACEWID
 40
0.05
  9
$TEXTSTYLE
  7
Standard
  9
$CLAYER
  8
0
  9
$CELTYPE
  6
ByLayer
  9
$CECOLOR
 62
    18
  9
$CELTSCALE
 40
1.0
  9
$DISPSILH
 70
     0
  9
$DIMSCALE
 40
1.0
  9
$DIMASZ
 40
2.5
  9
$DIMEXO
 40
0.625
  9
$DIMDLI
 40
0.38
  9
$DIMRND
 40
0.0
  9
$DIMDLE
 40
0.0
  9
$DIMEXE
 40
1.25
  9
$DIMTP
 40
0.0
  9
$DIMTM
 40
0.0
  9
$DIMTXT
 40
2.5
  9
$DIMCEN
 40
0.09
  9
$DIMTSZ
 40
0.0
  9
$DIMTOL
 70
     0
  9
$DIMLIM
 70
     0
  9
$DIMTIH
 70
     1
  9
$DIMTOH
 70
     1
  9
$DIMSE1
 70
     0
  9
$DIMSE2
 70
     0
  9
$DIMTAD
 70
     0
  9
$DIMZIN
 70
     8
  9
$DIMBLK
  1

  9
$DIMASO
 70
     1
  9
$DIMSHO
 70
     1
  9
$DIMPOST
  1

  9
$DIMAPOST
  1

  9
$DIMALT
 70
     0
  9
$DIMALTD
 70
     2
  9
$DIMALTF
 40
25.4
  9
$DIMLFAC
 40
1.0
  9
$DIMTOFL
 70
     0
  9
$DIMTVP
 40
0.0
  9
$DIMTIX
 70
     0
  9
$DIMSOXD
 70
     0
  9
$DIMSAH
 70
     0
  9
$DIMBLK1
  1

  9
$DIMBLK2
  1

  9
$DIMSTYLE
  2
Standard
  9
$DIMCLRD
 70
    18
  9
$DIMCLRE
 70
    18
  9
$DIMCLRT
 70
    18
  9
$DIMTFAC
 40
1.0
  9
$DIMGAP
 40
0.625
  9
$DIMJUST
 70
     0
  9
$DIMSD1
 70
     0
  9
$DIMSD2
 70
     0
  9
$DIMTOLJ
 70
     1
  9
$DIMTZIN
 70
     0
  9
$DIMALTZ
 70
     0
  9
$DIMALTTZ
 70
     0
  9
$DIMUPT
 70
     0
  9
$DIMDEC
 70
     4
  9
$DIMTDEC
 70
     4
  9
$DIMALTU
 70
     2
  9
$DIMALTTD
 70
     2
  9
$DIMTXSTY
  7
Standard
  9
$DIMAUNIT
 70
     0
  9
$DIMADEC
 70
     0
  9
$DIMALTRND
 40
0.0
  9
$DIMAZIN
 70
     2
  9
$DIMDSEP
 70
    46
  9
$DIMATFIT
 70
     3
  9
$DIMFRAC
 70
     0
  9
$DIMLDRBLK
  1

  9
$DIMLUNIT
 70
     2
  9
$DIMLWD
 70
    -2
  9
$DIMLWE
 70
    -2
  9
$DIMTMOVE
 70
     0
  9
$DIMFXL
 40
1.0
  9
$DIMFXLON
 70
     0
  9
$DIMJOGANG
 40
0.7853981633974483
  9
$DIMTFILL
 70
     0
  9
$DIMTFILLCLR
 70
     0
  9
$DIMARCSYM
 70
     0
  9
$DIMLTYPE
  6

  9
$DIMLTEX1
  6

  9
$DIMLTEX2
  6

  9
$DIMTXTDIRECTION
 70
     0
  9
$LUNITS
 70
     2
  9
$LUPREC
 70
     4
  9
$SKETCHINC
 40
0.1
  9
$FILLETRAD
 40
0.5
  9
$AUNITS
 70
     0
  9
$AUPREC
 70
     0
  9
$MENU
  1
.
  9
$ELEVATION
 40
0.0
  9
$PELEVATION
 40
0.0
  9
$THICKNESS
 40
0.0
  9
$LIMCHECK
 70
     0
  9
$CHAMFERA
 40
0.0
  9
$CHAMFERB
 40
0.0
  9
$CHAMFERC
 40
0.0
  9
$CHAMFERD
 40
0.0
  9
$SKPOLY
 70
     0
  9
$TDCREATE
 40
2457794.428788958
  9
$TDUCREATE
 40
2457794.387122292
  9
$TDUPDATE
 40
2457794.428789502
  9
$TDUUPDATE
 40
2457794.387122835
  9
$TDINDWG
 40
0.0000000116
  9
$TDUSRTIMER
 40
0.0000000116
  9
$USRTIMER
 70
     1
  9
$ANGBASE
 50
0.0
  9
$ANGDIR
 70
     0
  9
$PDMODE
 70
     0
  9
$PDSIZE
 40
0.0
  9
$PLINEWID
 40
0.0
  9
$SPLFRAME
 70
     0
  9
$SPLINETYPE
 70
     6
  9
$SPLINESEGS
 70
     8
  9
$HANDSEED
  5
3CD
  9
$SURFTAB1
 70
     6
  9
$SURFTAB2
 70
     6
  9
$SURFTYPE
 70
     6
  9
$SURFU
 70
     6
  9
$SURFV
 70
     6
  9
$UCSBASE
  2

  9
$UCSNAME
  2

  9
$UCSORG
 10
0.0
 20
0.0
 30
0.0
  9
$UCSXDIR
 10
1.0
 20
0.0
 30
0.0
  9
$UCSYDIR
 10
0.0
 20
1.0
 30
0.0
  9
$UCSORTHOREF
  2

  9
$UCSORTHOVIEW
 70
     0
  9
$UCSORGTOP
 10
0.0
 20
0.0
 30
0.0
  9
$UCSORGBOTTOM
 10
0.0
 20
0.0
 30
0.0
  9
$UCSORGLEFT
 10
0.0
 20
0.0
 30
0.0
  9
$UCSORGRIGHT
 10
0.0
 20
0.0
 30
0.0
  9
$UCSORGFRONT
 10
0.0
 20
0.0
 30
0.0
  9
$UCSORGBACK
 10
0.0
 20
0.0
 30
0.0
  9
$PUCSBASE
  2

  9
$PUCSNAME
  2

  9
$PUCSORG
 10
0.0
 20
0.0
 30
0.0
  9
$PUCSXDIR
 10
1.0
 20
0.0
 30
0.0
  9
$PUCSYDIR
 10
0.0
 20
1.0
 30
0.0
  9
$PUCSORTHOREF
  2

  9
$PUCSORTHOVIEW
 70
     0
  9
$PUCSORGTOP
 10
0.0
 20
0.0
 30
0.0
  9
$PUCSORGBOTTOM
 10
0.0
 20
0.0
 30
0.0
  9
$PUCSORGLEFT
 10
0.0
 20
0.0
 30
0.0
  9
$PUCSORGRIGHT
 10
0.0
 20
0.0
 30
0.0
  9
$PUCSORGFRONT
 10
0.0
 20
0.0
 30
0.0
  9
$PUCSORGBACK
 10
0.0
 20
0.0
 30
0.0
  9
$USERI1
 70
     0
  9
$USERI2
 70
     0
  9
$USERI3
 70
     0
  9
$USERI4
 70
     0
  9
$USERI5
 70
     0
  9
$USERR1
 40
0.0
  9
$USERR2
 40
0.0
  9
$USERR3
 40
0.0
  9
$USERR4
 40
0.0
  9
$USERR5
 40
0.0
  9
$WORLDVIEW
 70
     1
  9
$SHADEDGE
 70
     3
  9
$SHADEDIF
 70
    70
  9
$TILEMODE
 70
     1
  9
$MAXACTVP
 70
    64
  9
$PINSBASE
 10
0.0
 20
0.0
 30
0.0
  9
$PLIMCHECK
 70
     0
  9
$PEXTMIN
 10
1.000000000000000E+20
 20
1.000000000000000E+20
 30
1.000000000000000E+20
  9
$PEXTMAX
 10
-1.000000000000000E+20
 20
-1.000000000000000E+20
 30
-1.000000000000000E+20
  9
$PLIMMIN
 10
0.0
 20
0.0
  9
$PLIMMAX
 10
12.0
 20
9.0
  9
$UNITMODE
 70
     0
  9
$VISRETAIN
 70
     1
  9
$PLINEGEN
 70
     0
  9
$PSLTSCALE
 70
     1
  9
$TREEDEPTH
 70
  3020
  9
$CMLSTYLE
  2
Standard
  9
$CMLJUST
 70
     0
  9
$CMLSCALE
 40
1.0
  9
$PROXYGRAPHICS
 70
     1
  9
$MEASUREMENT
 70
     1
  9
$CELWEIGHT
370
    -1
  9
$ENDCAPS
280
     0
  9
$JOINSTYLE
280
     0
  9
$LWDISPLAY
290
     0
  9
$INSUNITS
 70
     0
  9
$HYPERLINKBASE
  1

  9
$STYLESHEET
  1

  9
$XEDIT
290
     1
  9
$CEPSNTYPE
380
     0
  9
$PSTYLEMODE
290
     1
  9
$FINGERPRINTGUID
  2
{EE76366B-60C7-4F03-9CC4-0D49715BB3BC}
  9
$VERSIONGUID
  2
{FAEB1C32-E019-11D5-929B-00C0DF256EC4}
  9
$EXTNAMES
290
     1
  9
$PSVPSCALE
 40
0.0
  9
$OLESTARTUP
290
     0
  9
$SORTENTS
280
   127
  9
$INDEXCTL
280
     0
  9
$HIDETEXT
280
     1
  9
$XCLIPFRAME
280
     2
  9
$HALOGAP
280
     0
  9
$OBSCOLOR
 70
   257
  9
$OBSLTYPE
280
     0
  9
$INTERSECTIONDISPLAY
280
     0
  9
$INTERSECTIONCOLOR
 70
   257
  9
$DIMASSOC
280
     2
  9
$PROJECTNAME
  1

  9
$CAMERADISPLAY
290
     0
  9
$LENSLENGTH
 40
50.0
  9
$CAMERAHEIGHT
 40
0.0
  9
$STEPSPERSEC
 40
2.0
  9
$STEPSIZE
 40
6.0
  9
$3DDWFPREC
 40
2.0
  9
$PSOLWIDTH
 40
0.25
  9
$PSOLHEIGHT
 40
4.0
  9
$LOFTANG1
 40
1.570796326794897
  9
$LOFTANG2
 40
1.570796326794897
  9
$LOFTMAG1
 40
0.0
  9
$LOFTMAG2
 40
0.0
  9
$LOFTPARAM
 70
     7
  9
$LOFTNORMALS
280
     1
  9
$LATITUDE
 40
37.795
  9
$LONGITUDE
 40
-122.394
  9
$NORTHDIRECTION
 40
0.0
  9
$TIMEZONE
 70
 -8000
  9
$LIGHTGLYPHDISPLAY
280
     1
  9
$TILEMODELIGHTSYNCH
280
     1
  9
$CMATERIAL
347
330
  9
$SOLIDHIST
280
     1
  9
$SHOWHIST
280
     1
  9
$DWFFRAME
280
     2
  9
$DGNFRAME
280
     2
  9
$REALWORLDSCALE
290
     1
  9
$INTERFERECOLOR
 62
   256
  9
$CSHADOW
280
     0
  9
$SHADOWPLANELOCATION
 40
0.0
  0
ENDSEC
  0
SECTION
  2
CLASSES
  0
CLASS
  1
ACDBDICTIONARYWDFLT
  2
AcDbDictionaryWithDefault
  3
ObjectDBX Classes
 90
        0
 91
        4
280
     0
281
     0
  0
CLASS
  1
VISUALSTYLE
  2
AcDbVisualStyle
  3
ObjectDBX Classes
 90
     4095
 91
        4
280
     0
281
     0
  0
CLASS
  1
MATERIAL
  2
AcDbMaterial
  3
ObjectDBX Classes
 90
     1153
 91
        4
280
     0
281
     0
  0
CLASS
  1
SCALE
  2
AcDbScale
  3
ObjectDBX Classes
 90
     1153
 91
        4
280
     0
281
     0
  0
CLASS
  1
SUN
  2
AcDbSun
  3
SCENEOE
 90
     1153
 91
        4
280
     0
281
     0
  0
CLASS
  1
DICTIONARYVAR
  2
AcDbDictionaryVar
  3
ObjectDBX Classes
 90
        0
 91
        4
280
     0
281
     0
  0
ENDSEC
  0
SECTION
  2
TABLES
  0
TABLE
  2
VPORT
  5
2F5
330
0
100
AcDbSymbolTable
 70
     1
  0
VPORT
  5
315
330
2F5
100
AcDbSymbolTableRecord
100
AcDbViewportTableRecord
  2
*Active
 70
     0
 10
0.0
 20
0.0
 11
1.0
 21
1.0
 12
10.42990654205607
 22
4.5
 13
0.0
 23
0.0
 14
0.5
 24
0.5
 15
0.5
 25
0.5
 16
0.0
 26
0.0
 36
1.0
 17
0.0
 27
0.0
 37
0.0
 40
9.0
 41
1.972972972850329
 42
50.0
 43
0.0
 44
0.0
 50
0.0
 51
0.0
 71
     0
 72
   100
 73
     1
 74
     3
 75
     0
 76
     0
 77
     0
 78
     0
281
     0
 65
     1
110
0.0
120
0.0
130
0.0
111
1.0
121
0.0
131
0.0
112
0.0
122
1.0
132
0.0
 79
     0
146
0.0
 60
     3
 61
     5
292
     1
282
     1
141
0.0
142
0.0
 63
   250
361
355
  0
ENDTAB
  0
TABLE
  2
LTYPE
  5
2F2
330
0
100
AcDbSymbolTable
 70
    19
  0
LTYPE
  5
300
330
2F2
100
AcDbSymbolTableRecord
100
AcDbLinetypeTableRecord
  2
ByBlock
 70
     0
  3

 72
    65
 73
     0
 40
0.0
  0
LTYPE
  5
301
330
2F2
100
AcDbSymbolTableRecord
100
AcDbLinetypeTableRecord
  2
ByLayer
 70
     0
  3

 72
    65
 73
     0
 40
0.0
  0
LTYPE
  5
302
330
2F2
100
AcDbSymbolTableRecord
100
AcDbLinetypeTableRecord
  2
Continuous
 70
     0
  3
Solid line
 72
    65
 73
     0
 40
0.0
  0
LTYPE
  5
384
330
2F2
100
AcDbSymbolTableRecord
100
AcDbLinetypeTableRecord
  2
BORDER
 70
     0
  3

 72
    65
 73
     6
 40
42.00000000000001
 49
12.0
 74
     0
 49
-6.0
 74
     0
 49
12.0
 74
     0
 49
-5.95
 74
     0
 49
0.1
 74
     0
 49
-5.95
 74
     0
  0
LTYPE
  5
385
330
2F2
100
AcDbSymbolTableRecord
100
AcDbLinetypeTableRecord
  2
BORDER2
 70
     0
  3

 72
    65
 73
     6
 40
21.0
 49
6.0
 74
     0
 49
-3.0
 74
     0
 49
6.0
 74
     0
 49
-2.95
 74
     0
 49
0.1
 74
     0
 49
-2.95
 74
     0
  0
LTYPE
  5
386
330
2F2
100
AcDbSymbolTableRecord
100
AcDbLinetypeTableRecord
  2
BORDERX2
 70
     0
  3

 72
    65
 73
     6
 40
84.0
 49
24.0
 74
     0
 49
-12.0
 74
     0
 49
24.0
 74
     0
 49
-11.95
 74
     0
 49
0.1
 74
     0
 49
-11.95
 74
     0
  0
LTYPE
  5
387
330
2F2
100
AcDbSymbolTableRecord
100
AcDbLinetypeTableRecord
  2
CENTER
 70
     0
  3

 72
    65
 73
     4
 40
50.0
 49
32.0
 74
     0
 49
-6.0
 74
     0
 49
6.0
 74
     0
 49
-6.0
 74
     0
  0
LTYPE
  5
388
330
2F2
100
AcDbSymbolTableRecord
100
AcDbLinetypeTableRecord
  2
CENTER2
 70
     0
  3

 72
    65
 73
     4
 40
25.0
 49
16.0
 74
     0
 49
-3.0
 74
     0
 49
3.0
 74
     0
 49
-3.0
 74
     0
  0
LTYPE
  5
389
330
2F2
100
AcDbSymbolTableRecord
100
AcDbLinetypeTableRecord
  2
CENTERX2
 70
     0
  3

 72
    65
 73
     4
 40
100.0
 49
64.0
 74
     0
 49
-12.0
 74
     0
 49
12.0
 74
     0
 49
-12.0
 74
     0
  0
LTYPE
  5
38A
330
2F2
100
AcDbSymbolTableRecord
100
AcDbLinetypeTableRecord
  2
DASHDOT
 70
     0
  3

 72
    65
 73
     4
 40
24.0
 49
12.0
 74
     0
 49
-5.95
 74
     0
 49
0.1
 74
     0
 49
-5.95
 74
     0
  0
LTYPE
  5
38B
330
2F2
100
AcDbSymbolTableRecord
100
AcDbLinetypeTableRecord
  2
DASHDOT2
 70
     0
  3

 72
    65
 73
     4
 40
12.0
 49
6.0
 74
     0
 49
-2.95
 74
     0
 49
0.1
 74
     0
 49
-2.95
 74
     0
  0
LTYPE
  5
38C
330
2F2
100
AcDbSymbolTableRecord
100
AcDbLinetypeTableRecord
  2
DASHDOTX2
 70
     0
  3

 72
    65
 73
     4
 40
48.0
 49
24.0
 74
     0
 49
-11.95
 74
     0
 49
0.1
 74
     0
 49
-11.95
 74
     0
  0
LTYPE
  5
38D
330
2F2
100
AcDbSymbolTableRecord
100
AcDbLinetypeTableRecord
  2
DASHED
 70
     0
  3

 72
    65
 73
     2
 40
18.0
 49
12.0
 74
     0
 49
-6.0
 74
     0
  0
LTYPE
  5
38E
330
2F2
100
AcDbSymbolTableRecord
100
AcDbLinetypeTableRecord
  2
DASHED2
 70
     0
  3

 72
    65
 73
     2
 40
9.0
 49
6.0
 74
     0
 49
-3.0
 74
     0
  0
LTYPE
  5
38F
330
2F2
100
AcDbSymbolTableRecord
100
AcDbLinetypeTableRecord
  2
DASHEDX2
 70
     0
  3

 72
    65
 73
     2
 40
36.0
 49
24.0
 74
     0
 49
-12.0
 74
     0
  0
LTYPE
  5
390
330
2F2
100
AcDbSymbolTableRecord
100
AcDbLinetypeTableRecord
  2
DIVIDE
 70
     0
  3

 72
    65
 73
     6
 40
29.99999999999999
 49
12.0
 74
     0
 49
-5.9
 74
     0
 49
0.15
 74
     0
 49
-5.9
 74
     0
 49
0.15
 74
     0
 49
-5.9
 74
     0
  0
LTYPE
  5
391
330
2F2
100
AcDbSymbolTableRecord
100
AcDbLinetypeTableRecord
  2
DIVIDE2
 70
     0
  3

 72
    65
 73
     6
 40
15.0
 49
6.0
 74
     0
 49
-2.9
 74
     0
 49
0.15
 74
     0
 49
-2.9
 74
     0
 49
0.15
 74
     0
 49
-2.9
 74
     0
  0
LTYPE
  5
392
330
2F2
100
AcDbSymbolTableRecord
100
AcDbLinetypeTableRecord
  2
DIVIDEX2
 70
     0
  3

 72
    65
 73
     6
 40
59.99999999999999
 49
24.0
 74
     0
 49
-11.9
 74
     0
 49
0.15
 74
     0
 49
-11.9
 74
     0
 49
0.15
 74
     0
 49
-11.9
 74
     0
  0
LTYPE
  5
393
330
2F2
100
AcDbSymbolTableRecord
100
AcDbLinetypeTableRecord
  2
DOT
 70
     0
  3

 72
    65
 73
     2
 40
6.3
 49
0.1
 74
     0
 49
-6.2
 74
     0
  0
LTYPE
  5
394
330
2F2
100
AcDbSymbolTableRecord
100
AcDbLinetypeTableRecord
  2
DOT2
 70
     0
  3

 72
    65
 73
     2
 40
3.2
 49
0.1
 74
     0
 49
-3.1
 74
     0
  0
LTYPE
  5
395
330
2F2
100
AcDbSymbolTableRecord
100
AcDbLinetypeTableRecord
  2
DOTX2
 70
     0
  3

 72
    65
 73
     2
 40
12.5
 49
0.1
 74
     0
 49
-12.4
 74
     0
  0
ENDTAB
  0
TABLE
  2
LAYER
  5
2EF
330
0
100
AcDbSymbolTable
 70
     2
  0
LAYER
  5
2FD
330
2EF
100
AcDbSymbolTableRecord
100
AcDbLayerTableRecord
  2
0
 70
     0
 62
    18
420
        0
  6
Continuous
370
    25
390
2FC
347
332
348
0
  0
LAYER
  5
396
330
2EF
100
AcDbSymbolTableRecord
100
AcDbLayerTableRecord
  2
elem
 70
     0
 62
     8
420
  8421504
  6
Continuous
370
    -3
390
2FC
347
332
348
0
  0
ENDTAB
  0
TABLE
  2
STYLE
  5
2F0
330
0
100
AcDbSymbolTable
 70
     1
  0
STYLE
  5
2FE
330
2F0
100
AcDbSymbolTableRecord
100
AcDbTextStyleTableRecord
  2
Standard
 70
     0
 40
0.0
 41
1.0
 50
0.0
 71
     0
 42
0.2
  3
txt
  4

  0
ENDTAB
  0
TABLE
  2
VIEW
  5
2F3
330
0
100
AcDbSymbolTable
 70
     0
  0
ENDTAB
  0
TABLE
  2
UCS
  5
2F4
330
0
100
AcDbSymbolTable
 70
     0
  0
ENDTAB
  0
TABLE
  2
APPID
  5
2F6
330
0
100
AcDbSymbolTable
 70
     2
  0
APPID
  5
2FF
330
2F6
100
AcDbSymbolTableRecord
100
AcDbRegAppTableRecord
  2
ACAD
 70
     0
  0
APPID
  5
356
330
2F6
100
AcDbSymbolTableRecord
100
AcDbRegAppTableRecord
  2
QCAD
 70
     0
  0
ENDTAB
  0
TABLE
  2
DIMSTYLE
  5
2F7
330
0
100
AcDbSymbolTable
 70
     2
100
AcDbDimStyleTable
  0
DIMSTYLE
105
313
330
2F7
100
AcDbSymbolTableRecord
100
AcDbDimStyleTableRecord
  2
Standard
 70
     0
178
     0
340
2FE
  0
DIMSTYLE
105
383
330
2F7
100
AcDbSymbolTableRecord
100
AcDbDimStyleTableRecord
  2
QCADDimStyle
 70
     0
 41
2.5
 42
0.625
 44
1.25
 73
     0
 77
     1
140
2.5
147
0.625
178
     0
340
2FE
  0
ENDTAB
  0
TABLE
  2
BLOCK_RECORD
  5
2EE
330
0
100
AcDbSymbolTable
 70
    17
  0
BLOCK_RECORD
  5
30B
330
2EE
100
AcDbSymbolTableRecord
100
AcDbBlockTableRecord
  2
*Model_Space
340
30E
 70
     0
280
     1
281
     0
  0
BLOCK_RECORD
  5
307
330
2EE
100
AcDbSymbolTableRecord
100
AcDbBlockTableRecord
  2
*Paper_Space
340
30A
 70
     0
280
     1
281
     0
  0
BLOCK_RECORD
  5
30F
330
2EE
100
AcDbSymbolTableRecord
100
AcDbBlockTableRecord
  2
*Paper_Space0
340
312
 70
     0
280
     1
281
     0
  0
BLOCK_RECORD
  5
397
330
2EE
100
AcDbSymbolTableRecord
100
AcDbBlockTableRecord
  2
condor60
340
0
102
{BLKREFS
331
2A5
102
}
 70
     0
280
     1
281
     0
  0
BLOCK_RECORD
  5
39A
330
2EE
100
AcDbSymbolTableRecord
100
AcDbBlockTableRecord
  2
sofa185x70
340
0
102
{BLKREFS
331
2BF
102
}
 70
     0
280
     1
281
     0
  0
BLOCK_RECORD
  5
39D
330
2EE
100
AcDbSymbolTableRecord
100
AcDbBlockTableRecord
  2
AEG6440
340
0
102
{BLKREFS
331
247
102
}
 70
     0
280
     1
281
     0
  0
BLOCK_RECORD
  5
3A0
330
2EE
100
AcDbSymbolTableRecord
100
AcDbBlockTableRecord
  2
toilet
340
0
102
{BLKREFS
331
223
102
}
 70
     0
280
     1
281
     0
  0
BLOCK_RECORD
  5
3A3
330
2EE
100
AcDbSymbolTableRecord
100
AcDbBlockTableRecord
  2
cafe65circ
340
0
102
{BLKREFS
331
1F6
102
}
 70
     0
280
     1
281
     0
  0
BLOCK_RECORD
  5
3A6
330
2EE
100
AcDbSymbolTableRecord
100
AcDbBlockTableRecord
  2
bath01
340
0
102
{BLKREFS
331
207
102
}
 70
     0
280
     1
281
     0
  0
BLOCK_RECORD
  5
3A9
330
2EE
100
AcDbSymbolTableRecord
100
AcDbBlockTableRecord
  2
wlplS20BR_p
340
0
102
{BLKREFS
331
25B
102
}
 70
     0
280
     1
281
     0
  0
BLOCK_RECORD
  5
3AC
330
2EE
100
AcDbSymbolTableRecord
100
AcDbBlockTableRecord
  2
sink
340
0
102
{BLKREFS
331
23C
102
}
 70
     0
280
     1
281
     0
  0
BLOCK_RECORD
  5
3AF
330
2EE
100
AcDbSymbolTableRecord
100
AcDbBlockTableRecord
  2
bed_single_90_200
340
0
102
{BLKREFS
331
1D5
331
1D6
102
}
 70
     0
280
     1
281
     0
  0
BLOCK_RECORD
  5
3B2
330
2EE
100
AcDbSymbolTableRecord
100
AcDbBlockTableRecord
  2
opel_vivaro_top_view
340
0
102
{BLKREFS
331
92
102
}
 70
     0
280
     1
281
     0
  0
BLOCK_RECORD
  5
3B5
330
2EE
100
AcDbSymbolTableRecord
100
AcDbBlockTableRecord
  2
bed_double_180_200
340
0
102
{BLKREFS
331
B8
102
}
 70
     0
280
     1
281
     0
  0
BLOCK_RECORD
  5
3B8
330
2EE
100
AcDbSymbolTableRecord
100
AcDbBlockTableRecord
  2
dine6_80x180
340
0
102
{BLKREFS
331
2E9
102
}
 70
     0
280
     1
281
     0
  0
BLOCK_RECORD
  5
3BB
330
2EE
100
AcDbSymbolTableRecord
100
AcDbBlockTableRecord
  2
shower
340
0
102
{BLKREFS
331
219
102
}
 70
     0
280
     1
281
     0
  0
BLOCK_RECORD
  5
3BE
330
2EE
100
AcDbSymbolTableRecord
100
AcDbBlockTableRecord
  2
desk
340
0
102
{BLKREFS
331
FC
102
}
 70
     0
280
     1
281
     0
  0
BLOCK_RECORD
  5
3C1
330
2EE
100
AcDbSymbolTableRecord
100
AcDbBlockTableRecord
  2
door_70
340
0
102
{BLKREFS
331
39
331
FF
331
1F7
331
1FA
331
1FB
331
1FC
331
1FD
331
2A6
102
}
 70
     0
280
     1
281
     0
  0
BLOCK_RECORD
  5
3C4
330
2EE
100
AcDbSymbolTableRecord
100
AcDbBlockTableRecord
  2
Workstation
340
0
102
{BLKREFS
331
FB
102
}
 70
     0
280
     1
281
     0
  0
ENDTAB
  0
ENDSEC
  0
SECTION
  2
BLOCKS
  0
BLOCK
  5
30C
330
30B
100
AcDbEntity
  8
0
100
AcDbBlockBegin
  2
*Model_Space
 70
     0
 10
0.0
 20
0.0
 30
0.0
  3
*Model_Space
  1
*Model_Space
  0
ENDBLK
  5
30D
330
30B
100
AcDbEntity
  8
0
100
AcDbBlockEnd
  0
BLOCK
  5
308
330
307
100
AcDbEntity
 67
     1
  8
0
100
AcDbBlockBegin
  2
*Paper_Space
 70
     0
 10
0.0
 20
0.0
 30
0.0
  3
*Paper_Space
  1
*Paper_Space
  0
ENDBLK
  5
309
330
307
100
AcDbEntity
 67
     1
  8
0
100
AcDbBlockEnd
  0
BLOCK
  5
310
330
30F
100
AcDbEntity
  8
0
100
AcDbBlockBegin
  2
*Paper_Space0
 70
     0
 10
0.0
 20
0.0
 30
0.0
  3
*Paper_Space0
  1
*Paper_Space0
  0
ENDBLK
  5
311
330
30F
100
AcDbEntity
  8
0
100
AcDbBlockEnd
  0
BLOCK
  5
398
330
397
100
AcDbEntity
  8
0
100
AcDbBlockBegin
  2
condor60
 70
     0
 10
0.0
 20
0.0
 30
0.0
  3
condor60
  1
condor60
  0
ARC
  5
25D
330
397
100
AcDbEntity
  8
elem
  6
Continuous
 62
     8
420
  8421504
100
AcDbCircle
 10
-45.0
 20
20.5
 30
0.0
 40
5.0
100
AcDbArc
 50
90.0
 51
180.0
  0
ARC
  5
25E
330
397
100
AcDbEntity
  8
elem
  6
Continuous
 62
     8
420
  8421504
100
AcDbCircle
 10
-45.0
 20
-20.5
 30
0.0
 40
5.0
100
AcDbArc
 50
180.0
 51
270.0
  0
ARC
  5
25F
330
397
100
AcDbEntity
  8
elem
  6
Continuous
 62
     8
420
  8421504
100
AcDbCircle
 10
45.0
 20
20.5
 30
0.0
 40
5.0
100
AcDbArc
 50
0.0
 51
90.0
  0
ARC
  5
260
330
397
100
AcDbEntity
  8
elem
  6
Continuous
 62
     8
420
  8421504
100
AcDbCircle
 10
45.0
 20
-20.5
 30
0.0
 40
5.0
100
AcDbArc
 50
270.0
 51
0.0
  0
ARC
  5
261
330
397
100
AcDbEntity
  8
elem
  6
Continuous
 62
     8
420
  8421504
100
AcDbCircle
 10
13.5
 20
17.0
 30
0.0
 40
4.0
100
AcDbArc
 50
90.0
 51
180.0
  0
ARC
  5
262
330
397
100
AcDbEntity
  8
elem
  6
Continuous
 62
     8
420
  8421504
100
AcDbCircle
 10
41.5
 20
17.0
 30
0.0
 40
4.0
100
AcDbArc
 50
0.0
 51
90.0
  0
ARC
  5
263
330
397
100
AcDbEntity
  8
elem
  6
Continuous
 62
     8
420
  8421504
100
AcDbCircle
 10
41.5
 20
-17.0
 30
0.0
 40
4.0
100
AcDbArc
 50
270.0
 51
0.0
  0
ARC
  5
264
330
397
100
AcDbEntity
  8
elem
  6
Continuous
 62
     8
420
  8421504
100
AcDbCircle
 10
13.5
 20
-17.0
 30
0.0
 40
4.0
100
AcDbArc
 50
180.0
 51
270.0
  0
LINE
  5
265
330
397
100
AcDbEntity
  8
elem
  6
Continuous
 62
     8
420
  8421504
100
AcDbLine
 10
50.0
 20
20.5
 30
0.0
 11
50.0
 21
-20.5
 31
0.0
  0
LINE
  5
266
330
397
100
AcDbEntity
  8
elem
  6
Continuous
 62
     8
420
  8421504
100
AcDbLine
 10
13.5
 20
-21.0
 30
0.0
 11
41.5
 21
-21.0
 31
0.0
  0
LINE
  5
267
330
397
100
AcDbEntity
  8
elem
  6
Continuous
 62
     8
420
  8421504
100
AcDbLine
 10
9.5
 20
17.0
 30
0.0
 11
9.5
 21
-17.0
 31
0.0
  0
LINE
  5
268
330
397
100
AcDbEntity
  8
elem
  6
Continuous
 62
     8
420
  8421504
100
AcDbLine
 10
45.5
 20
-17.0
 30
0.0
 11
45.5
 21
17.0
 31
0.0
  0
LINE
  5
269
330
397
100
AcDbEntity
  8
elem
  6
Continuous
 62
     8
420
  8421504
100
AcDbLine
 10
41.5
 20
21.0
 30
0.0
 11
13.5
 21
21.0
 31
0.0
  0
LINE
  5
26A
330
397
100
AcDbEntity
  8
elem
  6
Continuous
 62
     8
420
  8421504
100
AcDbLine
 10
45.0
 20
-25.5
 30
0.0
 11
-45.0
 21
-25.5
 31
0.0
  0
LINE
  5
26B
330
397
100
AcDbEntity
  8
elem
  6
Continuous
 62
     8
420
  8421504
100
AcDbLine
 10
-50.0
 20
-20.5
 30
0.0
 11
-50.0
 21
20.5
 31
0.0
  0
LINE
  5
26C
330
397
100
AcDbEntity
  8
elem
  6
Continuous
 62
     8
420
  8421504
100
AcDbLine
 10
-45.0
 20
25.5
 30
0.0
 11
45.0
 21
25.5
 31
0.0
  0
ARC
  5
26D
330
397
100
AcDbEntity
  8
elem
  6
Continuous
 62
     8
420
  8421504
100
AcDbCircle
 10
-41.5
 20
17.0
 30
0.0
 40
4.0
100
AcDbArc
 50
90.0
 51
180.0
  0
ARC
  5
26E
330
397
100
AcDbEntity
  8
elem
  6
Continuous
 62
     8
420
  8421504
100
AcDbCircle
 10
-13.5
 20
17.0
 30
0.0
 40
4.0
100
AcDbArc
 50
0.0
 51
90.0
  0
ARC
  5
26F
330
397
100
AcDbEntity
  8
elem
  6
Continuous
 62
     8
420
  8421504
100
AcDbCircle
 10
-13.5
 20
-17.0
 30
0.0
 40
4.0
100
AcDbArc
 50
270.0
 51
0.0
  0
ARC
  5
270
330
397
100
AcDbEntity
  8
elem
  6
Continuous
 62
     8
420
  8421504
100
AcDbCircle
 10
-41.5
 20
-17.0
 30
0.0
 40
4.0
100
AcDbArc
 50
180.0
 51
270.0
  0
LINE
  5
271
330
397
100
AcDbEntity
  8
elem
  6
Continuous
 62
     8
420
  8421504
100
AcDbLine
 10
-41.5
 20
-21.0
 30
0.0
 11
-13.5
 21
-21.0
 31
0.0
  0
LINE
  5
272
330
397
100
AcDbEntity
  8
elem
  6
Continuous
 62
     8
420
  8421504
100
AcDbLine
 10
-45.5
 20
17.0
 30
0.0
 11
-45.5
 21
-17.0
 31
0.0
  0
LINE
  5
273
330
397
100
AcDbEntity
  8
elem
  6
Continuous
 62
     8
420
  8421504
100
AcDbLine
 10
-13.5
 20
21.0
 30
0.0
 11
-41.5
 21
21.0
 31
0.0
  0
POINT
  5
274
330
397
100
AcDbEntity
  8
elem
  6
Continuous
 62
     8
420
  8421504
100
AcDbPoint
 10
0.0
 20
0.0
 30
0.0
  0
CIRCLE
  5
275
330
397
100
AcDbEntity
  8
elem
  6
Continuous
 62
     8
420
  8421504
100
AcDbCircle
 10
0.0
 20
0.0
 30
0.0
 40
3.5
  0
LINE
  5
276
330
397
100
AcDbEntity
  8
elem
  6
Continuous
 62
     8
420
  8421504
100
AcDbLine
 10
0.0
 20
0.0
 30
0.0
 11
0.0
 21
-5.0
 31
0.0
  0
LINE
  5
277
330
397
100
AcDbEntity
  8
elem
  6
Continuous
 62
     8
420
  8421504
100
AcDbLine
 10
0.0
 20
0.0
 30
0.0
 11
0.0
 21
5.0
 31
0.0
  0
LINE
  5
278
330
397
100
AcDbEntity
  8
elem
  6
Continuous
 62
     8
420
  8421504
100
AcDbLine
 10
0.0
 20
0.0
 30
0.0
 11
5.0
 21
0.0
 31
0.0
  0
LINE
  5
279
330
397
100
AcDbEntity
  8
elem
  6
Continuous
 62
     8
420
  8421504
100
AcDbLine
 10
0.0
 20
0.0
 30
0.0
 11
-5.0
 21
0.0
 31
0.0
  0
POINT
  5
27A
330
397
100
AcDbEntity
  8
elem
  6
Continuous
 62
     8
420
  8421504
100
AcDbPoint
 10
20.0
 20
0.0
 30
0.0
  0
CIRCLE
  5
27B
330
397
100
AcDbEntity
  8
elem
  6
Continuous
 62
     8
420
  8421504
100
AcDbCircle
 10
20.0
 20
0.0
 30
0.0
 40
5.0
  0
LINE
  5
27C
330
397
100
AcDbEntity
  8
elem
  6
Continuous
 62
     8
420
  8421504
100
AcDbLine
 10
20.0
 20
0.0
 30
0.0
 11
13.5
 21
0.0
 31
0.0
  0
LINE
  5
27D
330
397
100
AcDbEntity
  8
elem
  6
Continuous
 62
     8
420
  8421504
100
AcDbLine
 10
20.0
 20
0.0
 30
0.0
 11
20.0
 21
6.5
 31
0.0
  0
LINE
  5
27E
330
397
100
AcDbEntity
  8
elem
  6
Continuous
 62
     8
420
  8421504
100
AcDbLine
 10
20.0
 20
0.0
 30
0.0
 11
26.5
 21
0.0
 31
0.0
  0
LINE
  5
27F
330
397
100
AcDbEntity
  8
elem
  6
Continuous
 62
     8
420
  8421504
100
AcDbLine
 10
20.0
 20
0.0
 30
0.0
 11
20.0
 21
-6.5
 31
0.0
  0
ARC
  5
280
330
397
100
AcDbEntity
  8
elem
  6
Continuous
 62
     8
420
  8421504
100
AcDbCircle
 10
-4.75
 20
10.75
 30
0.0
 40
2.5
100
AcDbArc
 50
90.0
 51
180.0
  0
ARC
  5
281
330
397
100
AcDbEntity
  8
elem
  6
Continuous
 62
     8
420
  8421504
100
AcDbCircle
 10
4.75
 20
10.75
 30
0.0
 40
2.5
100
AcDbArc
 50
0.0
 51
90.0
  0
LINE
  5
282
330
397
100
AcDbEntity
  8
elem
  6
Continuous
 62
     8
420
  8421504
100
AcDbLine
 10
7.25
 20
10.75
 30
0.0
 11
7.25
 21
-10.75
 31
0.0
  0
ARC
  5
283
330
397
100
AcDbEntity
  8
elem
  6
Continuous
 62
     8
420
  8421504
100
AcDbCircle
 10
4.75
 20
-10.75
 30
0.0
 40
2.5
100
AcDbArc
 50
270.0
 51
0.0
  0
LINE
  5
284
330
397
100
AcDbEntity
  8
elem
  6
Continuous
 62
     8
420
  8421504
100
AcDbLine
 10
-7.25
 20
-10.75
 30
0.0
 11
-7.25
 21
10.75
 31
0.0
  0
ARC
  5
285
330
397
100
AcDbEntity
  8
elem
  6
Continuous
 62
     8
420
  8421504
100
AcDbCircle
 10
-4.75
 20
-10.75
 30
0.0
 40
2.5
100
AcDbArc
 50
180.0
 51
270.0
  0
LINE
  5
286
330
397
100
AcDbEntity
  8
elem
  6
Continuous
 62
     8
420
  8421504
100
AcDbLine
 10
-4.5
 20
18.0
 30
0.0
 11
-7.5
 21
18.0
 31
0.0
  0
LINE
  5
287
330
397
100
AcDbEntity
  8
elem
  6
Continuous
 62
     8
420
  8421504
100
AcDbLine
 10
-4.5
 20
18.0
 30
0.0
 11
-1.5
 21
18.0
 31
0.0
  0
LINE
  5
288
330
397
100
AcDbEntity
  8
elem
  6
Continuous
 62
     8
420
  8421504
100
AcDbLine
 10
-4.5
 20
18.0
 30
0.0
 11
-4.5
 21
21.0
 31
0.0
  0
LINE
  5
289
330
397
100
AcDbEntity
  8
elem
  6
Continuous
 62
     8
420
  8421504
100
AcDbLine
 10
-4.5
 20
18.0
 30
0.0
 11
-4.5
 21
15.0
 31
0.0
  0
CIRCLE
  5
28A
330
397
100
AcDbEntity
  8
elem
  6
Continuous
 62
     8
420
  8421504
100
AcDbCircle
 10
-4.5
 20
18.0
 30
0.0
 40
1.75
  0
LINE
  5
28B
330
397
100
AcDbEntity
  8
elem
  6
Continuous
 62
     8
420
  8421504
100
AcDbLine
 10
4.5
 20
18.0
 30
0.0
 11
1.5
 21
18.0
 31
0.0
  0
LINE
  5
28C
330
397
100
AcDbEntity
  8
elem
  6
Continuous
 62
     8
420
  8421504
100
AcDbLine
 10
4.5
 20
18.0
 30
0.0
 11
7.5
 21
18.0
 31
0.0
  0
LINE
  5
28D
330
397
100
AcDbEntity
  8
elem
  6
Continuous
 62
     8
420
  8421504
100
AcDbLine
 10
4.5
 20
18.0
 30
0.0
 11
4.5
 21
21.0
 31
0.0
  0
LINE
  5
28E
330
397
100
AcDbEntity
  8
elem
  6
Continuous
 62
     8
420
  8421504
100
AcDbLine
 10
4.5
 20
18.0
 30
0.0
 11
4.5
 21
15.0
 31
0.0
  0
CIRCLE
  5
28F
330
397
100
AcDbEntity
  8
elem
  6
Continuous
 62
     8
420
  8421504
100
AcDbCircle
 10
4.5
 20
18.0
 30
0.0
 40
1.75
  0
ARC
  5
290
330
397
100
AcDbEntity
  8
elem
  6
Continuous
 62
     8
420
  8421504
100
AcDbCircle
 10
-7.0
 20
-15.75
 30
0.0
 40
2.5
100
AcDbArc
 50
90.0
 51
180.0
  0
ARC
  5
291
330
397
100
AcDbEntity
  8
elem
  6
Continuous
 62
     8
420
  8421504
100
AcDbCircle
 10
-7.0
 20
15.75
 30
0.0
 40
2.5
100
AcDbArc
 50
180.0
 51
270.0
  0
LINE
  5
292
330
397
100
AcDbEntity
  8
elem
  6
Continuous
 62
     8
420
  8421504
100
AcDbLine
 10
-9.5
 20
-17.0
 30
0.0
 11
-9.5
 21
-15.75
 31
0.0
  0
LINE
  5
293
330
397
100
AcDbEntity
  8
elem
  6
Continuous
 62
     8
420
  8421504
100
AcDbLine
 10
-9.5
 20
15.75
 30
0.0
 11
-9.5
 21
17.0
 31
0.0
  0
LINE
  5
294
330
397
100
AcDbEntity
  8
elem
  6
Continuous
 62
     8
420
  8421504
100
AcDbLine
 10
-7.0
 20
13.25
 30
0.0
 11
-4.75
 21
13.25
 31
0.0
  0
LINE
  5
295
330
397
100
AcDbEntity
  8
elem
  6
Continuous
 62
     8
420
  8421504
100
AcDbLine
 10
-4.75
 20
13.25
 30
0.0
 11
7.0
 21
13.25
 31
0.0
  0
ARC
  5
296
330
397
100
AcDbEntity
  8
elem
  6
Continuous
 62
     8
420
  8421504
100
AcDbCircle
 10
7.0
 20
15.75
 30
0.0
 40
2.5
100
AcDbArc
 50
270.0
 51
0.0
  0
LINE
  5
297
330
397
100
AcDbEntity
  8
elem
  6
Continuous
 62
     8
420
  8421504
100
AcDbLine
 10
-7.0
 20
-13.25
 30
0.0
 11
-4.75
 21
-13.25
 31
0.0
  0
LINE
  5
298
330
397
100
AcDbEntity
  8
elem
  6
Continuous
 62
     8
420
  8421504
100
AcDbLine
 10
-4.75
 20
-13.25
 30
0.0
 11
7.0
 21
-13.25
 31
0.0
  0
ARC
  5
299
330
397
100
AcDbEntity
  8
elem
  6
Continuous
 62
     8
420
  8421504
100
AcDbCircle
 10
7.0
 20
-15.75
 30
0.0
 40
2.5
100
AcDbArc
 50
0.0
 51
90.0
  0
LINE
  5
29A
330
397
100
AcDbEntity
  8
elem
  6
Continuous
 62
     8
420
  8421504
100
AcDbLine
 10
-10.5
 20
0.0
 30
0.0
 11
-41.5
 21
0.0
 31
0.0
  0
LINE
  5
29B
330
397
100
AcDbEntity
  8
elem
  6
Continuous
 62
     8
420
  8421504
100
AcDbLine
 10
-10.5
 20
15.5
 30
0.0
 11
-41.5
 21
15.5
 31
0.0
  0
LINE
  5
29C
330
397
100
AcDbEntity
  8
elem
  6
Continuous
 62
     8
420
  8421504
100
AcDbLine
 10
-10.5
 20
12.4
 30
0.0
 11
-41.5
 21
12.4
 31
0.0
  0
LINE
  5
29D
330
397
100
AcDbEntity
  8
elem
  6
Continuous
 62
     8
420
  8421504
100
AcDbLine
 10
-10.5
 20
9.3
 30
0.0
 11
-41.5
 21
9.3
 31
0.0
  0
LINE
  5
29E
330
397
100
AcDbEntity
  8
elem
  6
Continuous
 62
     8
420
  8421504
100
AcDbLine
 10
-10.5
 20
6.2
 30
0.0
 11
-41.5
 21
6.2
 31
0.0
  0
LINE
  5
29F
330
397
100
AcDbEntity
  8
elem
  6
Continuous
 62
     8
420
  8421504
100
AcDbLine
 10
-10.5
 20
3.1
 30
0.0
 11
-41.5
 21
3.1
 31
0.0
  0
LINE
  5
2A0
330
397
100
AcDbEntity
  8
elem
  6
Continuous
 62
     8
420
  8421504
100
AcDbLine
 10
-10.5
 20
-15.5
 30
0.0
 11
-41.5
 21
-15.5
 31
0.0
  0
LINE
  5
2A1
330
397
100
AcDbEntity
  8
elem
  6
Continuous
 62
     8
420
  8421504
100
AcDbLine
 10
-10.5
 20
-12.4
 30
0.0
 11
-41.5
 21
-12.4
 31
0.0
  0
LINE
  5
2A2
330
397
100
AcDbEntity
  8
elem
  6
Continuous
 62
     8
420
  8421504
100
AcDbLine
 10
-10.5
 20
-9.3
 30
0.0
 11
-41.5
 21
-9.3
 31
0.0
  0
LINE
  5
2A3
330
397
100
AcDbEntity
  8
elem
  6
Continuous
 62
     8
420
  8421504
100
AcDbLine
 10
-10.5
 20
-6.2
 30
0.0
 11
-41.5
 21
-6.2
 31
0.0
  0
LINE
  5
2A4
330
397
100
AcDbEntity
  8
elem
  6
Continuous
 62
     8
420
  8421504
100
AcDbLine
 10
-10.5
 20
-3.1
 30
0.0
 11
-41.5
 21
-3.1
 31
0.0
  0
ENDBLK
  5
399
330
397
100
AcDbEntity
  8
0
100
AcDbBlockEnd
  0
BLOCK
  5
39B
330
39A
100
AcDbEntity
  8
0
100
AcDbBlockBegin
  2
sofa185x70
 70
     0
 10
0.0
 20
0.0
 30
0.0
  3
sofa185x70
  1
sofa185x70
  0
ARC
  5
2A8
330
39A
100
AcDbEntity
  8
elem
  6
Continuous
 62
     8
420
  8421504
100
AcDbCircle
 10
77.5
 20
-15.0
 30
0.0
 40
15.0
100
AcDbArc
 50
0.0
 51
90.0
  0
LINE
  5
2A9
330
39A
100
AcDbEntity
  8
elem
  6
Continuous
 62
     8
420
  8421504
100
AcDbLine
 10
-82.5
 20
-60.0
 30
0.0
 11
-84.5
 21
-60.0
 31
0.0
  0
LINE
  5
2AA
330
39A
100
AcDbEntity
  8
elem
  6
Continuous
 62
     8
420
  8421504
100
AcDbLine
 10
-92.5
 20
-52.0
 30
0.0
 11
-92.5
 21
-15.0
 31
0.0
  0
LINE
  5
2AB
330
39A
100
AcDbEntity
  8
elem
  6
Continuous
 62
     8
420
  8421504
100
AcDbLine
 10
-77.5
 20
0.0
 30
0.0
 11
77.5
 21
0.0
 31
0.0
  0
LINE
  5
2AC
330
39A
100
AcDbEntity
  8
elem
  6
Continuous
 62
     8
420
  8421504
100
AcDbLine
 10
92.5
 20
-15.0
 30
0.0
 11
92.5
 21
-52.0
 31
0.0
  0
LINE
  5
2AD
330
39A
100
AcDbEntity
  8
elem
  6
Continuous
 62
     8
420
  8421504
100
AcDbLine
 10
84.5
 20
-60.0
 30
0.0
 11
82.5
 21
-60.0
 31
0.0
  0
ARC
  5
2AE
330
39A
100
AcDbEntity
  8
elem
  6
Continuous
 62
     8
420
  8421504
100
AcDbCircle
 10
-22.5
 20
-65.0
 30
0.0
 40
5.0
100
AcDbArc
 50
180.0
 51
270.0
  0
ARC
  5
2AF
330
39A
100
AcDbEntity
  8
elem
  6
Continuous
 62
     8
420
  8421504
100
AcDbCircle
 10
32.5
 20
-65.0
 30
0.0
 40
5.0
100
AcDbArc
 50
180.0
 51
270.0
  0
ARC
  5
2B0
330
39A
100
AcDbEntity
  8
elem
  6
Continuous
 62
     8
420
  8421504
100
AcDbCircle
 10
22.5
 20
-65.0
 30
0.0
 40
5.0
100
AcDbArc
 50
270.0
 51
0.0
  0
ARC
  5
2B1
330
39A
100
AcDbEntity
  8
elem
  6
Continuous
 62
     8
420
  8421504
100
AcDbCircle
 10
-32.5
 20
-65.0
 30
0.0
 40
5.0
100
AcDbArc
 50
270.0
 51
0.0
  0
LINE
  5
2B2
330
39A
100
AcDbEntity
  8
elem
  6
Continuous
 62
     8
420
  8421504
100
AcDbLine
 10
-27.5
 20
-65.0
 30
0.0
 11
-27.5
 21
-20.0
 31
0.0
  0
LINE
  5
2B3
330
39A
100
AcDbEntity
  8
elem
  6
Continuous
 62
     8
420
  8421504
100
AcDbLine
 10
27.5
 20
-65.0
 30
0.0
 11
27.5
 21
-20.0
 31
0.0
  0
ARC
  5
2B4
330
39A
100
AcDbEntity
  8
elem
  6
Continuous
 62
     8
420
  8421504
100
AcDbCircle
 10
-77.5
 20
-25.0
 30
0.0
 40
5.0
100
AcDbArc
 50
90.0
 51
180.0
  0
LINE
  5
2B5
330
39A
100
AcDbEntity
  8
elem
  6
Continuous
 62
     8
420
  8421504
100
AcDbLine
 10
-77.5
 20
-20.0
 30
0.0
 11
77.5
 21
-20.0
 31
0.0
  0
LINE
  5
2B6
330
39A
100
AcDbEntity
  8
elem
  6
Continuous
 62
     8
420
  8421504
100
AcDbLine
 10
82.5
 20
-25.0
 30
0.0
 11
82.5
 21
-65.0
 31
0.0
  0
LINE
  5
2B7
330
39A
100
AcDbEntity
  8
elem
  6
Continuous
 62
     8
420
  8421504
100
AcDbLine
 10
77.5
 20
-70.0
 30
0.0
 11
-77.5
 21
-70.0
 31
0.0
  0
LINE
  5
2B8
330
39A
100
AcDbEntity
  8
elem
  6
Continuous
 62
     8
420
  8421504
100
AcDbLine
 10
-82.5
 20
-65.0
 30
0.0
 11
-82.5
 21
-25.0
 31
0.0
  0
ARC
  5
2B9
330
39A
100
AcDbEntity
  8
elem
  6
Continuous
 62
     8
420
  8421504
100
AcDbCircle
 10
77.5
 20
-65.0
 30
0.0
 40
5.0
100
AcDbArc
 50
270.0
 51
0.0
  0
ARC
  5
2BA
330
39A
100
AcDbEntity
  8
elem
  6
Continuous
 62
     8
420
  8421504
100
AcDbCircle
 10
-77.5
 20
-65.0
 30
0.0
 40
5.0
100
AcDbArc
 50
180.0
 51
270.0
  0
ARC
  5
2BB
330
39A
100
AcDbEntity
  8
elem
  6
Continuous
 62
     8
420
  8421504
100
AcDbCircle
 10
77.5
 20
-25.0
 30
0.0
 40
5.0
100
AcDbArc
 50
0.0
 51
90.0
  0
ARC
  5
2BC
330
39A
100
AcDbEntity
  8
elem
  6
Continuous
 62
     8
420
  8421504
100
AcDbCircle
 10
-77.5
 20
-15.0
 30
0.0
 40
15.0
100
AcDbArc
 50
90.0
 51
180.0
  0
ARC
  5
2BD
330
39A
100
AcDbEntity
  8
elem
  6
Continuous
 62
     8
420
  8421504
100
AcDbCircle
 10
84.5
 20
-52.0
 30
0.0
 40
8.0
100
AcDbArc
 50
270.0
 51
0.0
  0
ARC
  5
2BE
330
39A
100
AcDbEntity
  8
elem
  6
Continuous
 62
     8
420
  8421504
100
AcDbCircle
 10
-84.5
 20
-52.0
 30
0.0
 40
8.0
100
AcDbArc
 50
180.0
 51
270.0
  0
ENDBLK
  5
39C
330
39A
100
AcDbEntity
  8
0
100
AcDbBlockEnd
  0
BLOCK
  5
39E
330
39D
100
AcDbEntity
  8
0
100
AcDbBlockBegin
  2
AEG6440
 70
     0
 10
0.0
 20
0.0
 30
0.0
  3
AEG6440
  1
AEG6440
  0
LINE
  5
23F
330
39D
100
AcDbEntity
  8
elem
  6
Continuous
 62
     8
420
  8421504
100
AcDbLine
 10
-29.5
 20
25.0
 30
0.0
 11
29.5
 21
25.0
 31
0.0
  0
LINE
  5
240
330
39D
100
AcDbEntity
  8
elem
  6
Continuous
 62
     8
420
  8421504
100
AcDbLine
 10
29.5
 20
25.0
 30
0.0
 11
29.5
 21
-25.0
 31
0.0
  0
LINE
  5
241
330
39D
100
AcDbEntity
  8
elem
  6
Continuous
 62
     8
420
  8421504
100
AcDbLine
 10
29.5
 20
-25.0
 30
0.0
 11
-29.5
 21
-25.0
 31
0.0
  0
LINE
  5
242
330
39D
100
AcDbEntity
  8
elem
  6
Continuous
 62
     8
420
  8421504
100
AcDbLine
 10
-29.5
 20
-25.0
 30
0.0
 11
-29.5
 21
25.0
 31
0.0
  0
CIRCLE
  5
243
330
39D
100
AcDbEntity
  8
elem
  6
Continuous
 62
     8
420
  8421504
100
AcDbCircle
 10
18.0
 20
7.0
 30
0.0
 40
9.0
  0
CIRCLE
  5
244
330
39D
100
AcDbEntity
  8
elem
  6
Continuous
 62
     8
420
  8421504
100
AcDbCircle
 10
19.0
 20
-14.5
 30
0.0
 40
8.0
  0
CIRCLE
  5
245
330
39D
100
AcDbEntity
  8
elem
  6
Continuous
 62
     8
420
  8421504
100
AcDbCircle
 10
-9.0
 20
-11.5
 30
0.0
 40
11.0
  0
CIRCLE
  5
246
330
39D
100
AcDbEntity
  8
elem
  6
Continuous
 62
     8
420
  8421504
100
AcDbCircle
 10
-19.0
 20
10.0
 30
0.0
 40
8.0
  0
ENDBLK
  5
39F
330
39D
100
AcDbEntity
  8
0
100
AcDbBlockEnd
  0
BLOCK
  5
3A1
330
3A0
100
AcDbEntity
  8
0
100
AcDbBlockBegin
  2
toilet
 70
     0
 10
0.0
 20
0.0
 30
0.0
  3
toilet
  1
toilet
  0
LINE
  5
21B
330
3A0
100
AcDbEntity
  8
0
100
AcDbLine
 10
0.0
 20
0.0
 30
0.0
 11
280.0000000000002
 21
0.0
 31
0.0
  0
ELLIPSE
  5
21C
330
3A0
100
AcDbEntity
  8
0
100
AcDbEllipse
 10
140.0000000000001
 20
299.9999999999998
 30
0.0
 11
0.0
 21
200.0000000000002
 31
0.0
210
0.0
220
0.0
230
1.0
 40
0.7499999999999994
 41
4.068887871591405
 42
8.497482742767765
  0
LINE
  5
21D
330
3A0
100
AcDbEntity
  8
0
100
AcDbLine
 10
0.0
 20
99.9999999999996
 30
0.0
 11
280.0000000000002
 21
99.9999999999996
 31
0.0
  0
LINE
  5
21E
330
3A0
100
AcDbEntity
  8
0
100
AcDbLine
 10
20.0
 20
99.9999999999996
 30
0.0
 11
20.0
 21
179.9999999999997
 31
0.0
  0
LINE
  5
21F
330
3A0
100
AcDbEntity
  8
0
100
AcDbLine
 10
260.0000000000002
 20
99.9999999999996
 30
0.0
 11
260.0000000000002
 21
179.9999999999997
 31
0.0
  0
LINE
  5
220
330
3A0
100
AcDbEntity
  8
0
100
AcDbLine
 10
280.0000000000001
 20
0.0
 30
0.0
 11
280.0000000000002
 21
99.9999999999996
 31
0.0
  0
LINE
  5
221
330
3A0
100
AcDbEntity
  8
0
100
AcDbLine
 10
0.0000000000002
 20
0.0
 30
0.0
 11
0.0
 21
99.9999999999996
 31
0.0
  0
ELLIPSE
  5
222
330
3A0
100
AcDbEntity
  8
0
100
AcDbEllipse
 10
140.0000000000001
 20
299.9999999999998
 30
0.0
 11
1.000000000000000E-13
 21
149.9999999999995
 31
0.0
210
0.0
220
0.0
230
1.0
 40
0.6666666666666704
 41
0.0
 42
6.283185307179586
  0
ENDBLK
  5
3A2
330
3A0
100
AcDbEntity
  8
0
100
AcDbBlockEnd
  0
BLOCK
  5
3A4
330
3A3
100
AcDbEntity
  8
0
100
AcDbBlockBegin
  2
cafe65circ
 70
     0
 10
0.0
 20
0.0
 30
0.0
  3
cafe65circ
  1
cafe65circ
  0
LINE
  5
1D9
330
3A3
100
AcDbEntity
  8
elem
  6
Continuous
 62
     8
420
  8421504
100
AcDbLine
 10
710.1397900000001
 20
356.5864
 30
0.0
 11
356.5864
 21
710.1397900000001
 31
0.0
  0
LINE
  5
1DA
330
3A3
100
AcDbEntity
  8
elem
  6
Continuous
 62
     8
420
  8421504
100
AcDbLine
 10
356.5864
 20
710.1397900000001
 30
0.0
 11
427.2970800000001
 21
710.1397900000001
 31
0.0
  0
LINE
  5
1DB
330
3A3
100
AcDbEntity
  8
elem
  6
Continuous
 62
     8
420
  8421504
100
AcDbLine
 10
710.1397900000001
 20
427.2970800000001
 30
0.0
 11
710.1397900000001
 21
356.5864
 31
0.0
  0
LINE
  5
1DC
330
3A3
100
AcDbEntity
  8
elem
  6
Continuous
 62
     8
420
  8421504
100
AcDbLine
 10
356.5864
 20
710.1397900000001
 30
0.0
 11
109.09903
 21
391.94174
 31
0.0
  0
LINE
  5
1DD
330
3A3
100
AcDbEntity
  8
elem
  6
Continuous
 62
     8
420
  8421504
100
AcDbLine
 10
391.94174
 20
109.09903
 30
0.0
 11
710.1397900000001
 21
356.5864
 31
0.0
  0
LINE
  5
1DE
330
3A3
100
AcDbEntity
  8
elem
  6
Continuous
 62
     8
420
  8421504
100
AcDbLine
 10
710.1397900000001
 20
-427.2970800000001
 30
0.0
 11
427.2970800000001
 21
-710.1397900000001
 31
0.0
  0
LINE
  5
1DF
330
3A3
100
AcDbEntity
  8
elem
  6
Continuous
 62
     8
420
  8421504
100
AcDbLine
 10
356.5864
 20
-710.1397900000001
 30
0.0
 11
710.1397900000001
 21
-356.5864
 31
0.0
  0
LINE
  5
1E0
330
3A3
100
AcDbEntity
  8
elem
  6
Continuous
 62
     8
420
  8421504
100
AcDbLine
 10
710.1397900000001
 20
-356.5864
 30
0.0
 11
710.1397900000001
 21
-427.2970800000001
 31
0.0
  0
LINE
  5
1E1
330
3A3
100
AcDbEntity
  8
elem
  6
Continuous
 62
     8
420
  8421504
100
AcDbLine
 10
427.2970800000001
 20
-710.1397900000001
 30
0.0
 11
356.5864
 21
-710.1397900000001
 31
0.0
  0
LINE
  5
1E2
330
3A3
100
AcDbEntity
  8
elem
  6
Continuous
 62
     8
420
  8421504
100
AcDbLine
 10
710.1397900000001
 20
-356.5864
 30
0.0
 11
391.94174
 21
-109.09903
 31
0.0
  0
LINE
  5
1E3
330
3A3
100
AcDbEntity
  8
elem
  6
Continuous
 62
     8
420
  8421504
100
AcDbLine
 10
109.09903
 20
-391.94174
 30
0.0
 11
356.5864
 21
-710.1397900000001
 31
0.0
  0
LINE
  5
1E4
330
3A3
100
AcDbEntity
  8
elem
  6
Continuous
 62
     8
420
  8421504
100
AcDbLine
 10
-427.2970800000001
 20
-710.1397900000001
 30
0.0
 11
-710.1397900000001
 21
-427.2970800000001
 31
0.0
  0
LINE
  5
1E5
330
3A3
100
AcDbEntity
  8
elem
  6
Continuous
 62
     8
420
  8421504
100
AcDbLine
 10
-710.1397900000001
 20
-356.5864
 30
0.0
 11
-356.5864
 21
-710.1397900000001
 31
0.0
  0
LINE
  5
1E6
330
3A3
100
AcDbEntity
  8
elem
  6
Continuous
 62
     8
420
  8421504
100
AcDbLine
 10
-356.5864
 20
-710.1397900000001
 30
0.0
 11
-427.2970800000001
 21
-710.1397900000001
 31
0.0
  0
LINE
  5
1E7
330
3A3
100
AcDbEntity
  8
elem
  6
Continuous
 62
     8
420
  8421504
100
AcDbLine
 10
-710.1397900000001
 20
-427.2970800000001
 30
0.0
 11
-710.1397900000001
 21
-356.5864
 31
0.0
  0
LINE
  5
1E8
330
3A3
100
AcDbEntity
  8
elem
  6
Continuous
 62
     8
420
  8421504
100
AcDbLine
 10
-356.5864
 20
-710.1397900000001
 30
0.0
 11
-109.09903
 21
-391.94174
 31
0.0
  0
LINE
  5
1E9
330
3A3
100
AcDbEntity
  8
elem
  6
Continuous
 62
     8
420
  8421504
100
AcDbLine
 10
-391.94174
 20
-109.09903
 30
0.0
 11
-710.1397900000001
 21
-356.5864
 31
0.0
  0
LINE
  5
1EA
330
3A3
100
AcDbEntity
  8
elem
  6
Continuous
 62
     8
420
  8421504
100
AcDbLine
 10
-391.94174
 20
109.09903
 30
0.0
 11
-109.09903
 21
391.94174
 31
0.0
  0
LINE
  5
1EB
330
3A3
100
AcDbEntity
  8
elem
  6
Continuous
 62
     8
420
  8421504
100
AcDbLine
 10
109.09903
 20
391.94174
 30
0.0
 11
391.94174
 21
109.09903
 31
0.0
  0
LINE
  5
1EC
330
3A3
100
AcDbEntity
  8
elem
  6
Continuous
 62
     8
420
  8421504
100
AcDbLine
 10
391.94174
 20
-109.09903
 30
0.0
 11
109.09903
 21
-391.94174
 31
0.0
  0
LINE
  5
1ED
330
3A3
100
AcDbEntity
  8
elem
  6
Continuous
 62
     8
420
  8421504
100
AcDbLine
 10
-109.09903
 20
-391.94174
 30
0.0
 11
-391.94174
 21
-109.09903
 31
0.0
  0
CIRCLE
  5
1EE
330
3A3
100
AcDbEntity
  8
elem
  6
Continuous
 62
     8
420
  8421504
100
AcDbCircle
 10
0.0
 20
0.0
 30
0.0
 40
325.0
  0
LINE
  5
1EF
330
3A3
100
AcDbEntity
  8
elem
  6
Continuous
 62
     8
420
  8421504
100
AcDbLine
 10
-710.1397900000001
 20
427.2970800000001
 30
0.0
 11
-427.2970800000001
 21
710.1397900000001
 31
0.0
  0
LINE
  5
1F0
330
3A3
100
AcDbEntity
  8
elem
  6
Continuous
 62
     8
420
  8421504
100
AcDbLine
 10
-356.5864
 20
710.1397900000001
 30
0.0
 11
-710.1397900000001
 21
356.5864
 31
0.0
  0
LINE
  5
1F1
330
3A3
100
AcDbEntity
  8
elem
  6
Continuous
 62
     8
420
  8421504
100
AcDbLine
 10
-710.1397900000001
 20
356.5864
 30
0.0
 11
-710.1397900000001
 21
427.2970800000001
 31
0.0
  0
LINE
  5
1F2
330
3A3
100
AcDbEntity
  8
elem
  6
Continuous
 62
     8
420
  8421504
100
AcDbLine
 10
-427.2970800000001
 20
710.1397900000001
 30
0.0
 11
-356.5864
 21
710.1397900000001
 31
0.0
  0
LINE
  5
1F3
330
3A3
100
AcDbEntity
  8
elem
  6
Continuous
 62
     8
420
  8421504
100
AcDbLine
 10
-710.1397900000001
 20
356.5864
 30
0.0
 11
-391.94174
 21
109.09903
 31
0.0
  0
LINE
  5
1F4
330
3A3
100
AcDbEntity
  8
elem
  6
Continuous
 62
     8
420
  8421504
100
AcDbLine
 10
-109.09903
 20
391.94174
 30
0.0
 11
-356.5864
 21
710.1397900000001
 31
0.0
  0
LINE
  5
1F5
330
3A3
100
AcDbEntity
  8
elem
  6
Continuous
 62
     8
420
  8421504
100
AcDbLine
 10
427.2970800000001
 20
710.1397900000001
 30
0.0
 11
710.1397900000001
 21
427.2970800000001
 31
0.0
  0
ENDBLK
  5
3A5
330
3A3
100
AcDbEntity
  8
0
100
AcDbBlockEnd
  0
BLOCK
  5
3A7
330
3A6
100
AcDbEntity
  8
0
100
AcDbBlockBegin
  2
bath01
 70
     0
 10
0.0
 20
0.0
 30
0.0
  3
bath01
  1
bath01
  0
LWPOLYLINE
  5
1FF
330
3A6
100
AcDbEntity
  8
0
 62
     0
100
AcDbPolyline
 90
        5
 70
     1
 43
0.0
 10
0.00569661
 20
6.68744
 10
2.94738
 20
6.68744
 10
2.94738
 20
0.00564236
 10
0.00569661
 20
0.00564236
 10
0.00569661
 20
6.68744
  0
LWPOLYLINE
  5
200
330
3A6
100
AcDbEntity
  8
0
 62
     0
100
AcDbPolyline
 90
       37
 70
     1
 43
0.0
 10
1.42817
 20
6.02669
 10
1.54486
 20
6.02669
 10
1.73682
 20
6.01357
 10
1.91542
 20
5.97581
 10
2.07682
 20
5.91601
 10
2.21733
 20
5.83675
 10
2.33317
 20
5.74061
 10
2.42057
 20
5.63015
 10
2.47581
 20
5.50797
 10
2.49507
 20
5.37657
 10
2.49507
 20
1.2092
 10
2.47581
 20
1.07785
 10
2.42057
 20
0.955675
 10
2.33317
 20
0.845215
 10
2.21733
 20
0.749078
 10
2.07682
 20
0.669814
 10
1.91542
 20
0.610026
 10
1.73682
 20
0.572265
 10
1.54486
 20
0.559082
 10
1.42817
 20
0.559082
 10
1.23617
 20
0.572265
 10
1.05762
 20
0.610026
 10
0.896212
 20
0.669814
 10
0.755697
 20
0.749078
 10
0.639865
 20
0.845215
 10
0.552463
 20
0.955675
 10
0.497233
 20
1.07785
 10
0.478028
 20
1.2092
 10
0.478028
 20
5.37657
 10
0.497233
 20
5.50797
 10
0.552463
 20
5.63015
 10
0.639865
 20
5.74061
 10
0.755697
 20
5.83675
 10
0.896212
 20
5.91601
 10
1.05762
 20
5.97581
 10
1.23617
 20
6.01357
 10
1.42817
 20
6.02669
  0
LWPOLYLINE
  5
201
330
3A6
100
AcDbEntity
  8
0
 62
     0
100
AcDbPolyline
 90
       37
 70
     1
 43
0.0
 10
1.40793
 20
6.37679
 10
1.56511
 20
6.37679
 10
1.82368
 20
6.36197
 10
2.06424
 20
6.31933
 10
2.28174
 20
6.2519
 10
2.47103
 20
6.16249
 10
2.62706
 20
6.05404
 10
2.74479
 20
5.92942
 10
2.81917
 20
5.79161
 10
2.84511
 20
5.64339
 10
2.84511
 20
0.942383
 10
2.81917
 20
0.794217
 10
2.74479
 20
0.656413
 10
2.62706
 20
0.531793
 10
2.47103
 20
0.42334
 10
2.28174
 20
0.333931
 10
2.06424
 20
0.266493
 10
1.82368
 20
0.22385
 10
1.56511
 20
0.208985
 10
1.40793
 20
0.208985
 10
1.14931
 20
0.22385
 10
0.908746
 20
0.266493
 10
0.691297
 20
0.333931
 10
0.502007
 20
0.42334
 10
0.345919
 20
0.531793
 10
0.22819
 20
0.656413
 10
0.153808
 20
0.794217
 10
0.12793
 20
0.942383
 10
0.12793
 20
5.64339
 10
0.153808
 20
5.79161
 10
0.22819
 20
5.92942
 10
0.345919
 20
6.05404
 10
0.502007
 20
6.16249
 10
0.691297
 20
6.2519
 10
0.908746
 20
6.31933
 10
1.14931
 20
6.36197
 10
1.40793
 20
6.37679
  0
LWPOLYLINE
  5
202
330
3A6
100
AcDbEntity
  8
0
 62
     0
100
AcDbPolyline
 90
       17
 70
     1
 43
0.0
 10
1.73936
 20
3.29844
 10
1.7276
 20
3.24007
 10
1.69542
 20
3.19233
 10
1.64768
 20
3.16015
 10
1.58931
 20
3.14833
 10
1.53088
 20
3.16015
 10
1.48318
 20
3.19233
 10
1.45101
 20
3.24007
 10
1.43929
 20
3.29844
 10
1.45101
 20
3.35693
 10
1.48318
 20
3.40462
 10
1.53088
 20
3.43679
 10
1.58931
 20
3.44857
 10
1.64768
 20
3.43679
 10
1.69542
 20
3.40462
 10
1.7276
 20
3.35693
 10
1.73936
 20
3.29844
  0
LWPOLYLINE
  5
203
330
3A6
100
AcDbEntity
  8
0
 62
     0
100
AcDbPolyline
 90
        9
 70
     0
 43
0.0
 10
0.48291
 20
3.43181
 10
0.537218
 20
3.42215
 10
0.581597
 20
3.39583
 10
0.61149
 20
3.35678
 10
0.622504
 20
3.30886
 10
0.61149
 20
3.26107
 10
0.581597
 20
3.222
 10
0.537218
 20
3.19564
 10
0.48291
 20
3.18593
  0
LWPOLYLINE
  5
204
330
3A6
100
AcDbEntity
  8
0
 62
     0
100
AcDbPolyline
 90
       30
 70
     1
 43
0.0
 10
2.44922
 20
3.84299
 10
2.46169
 20
3.3929
 10
2.42817
 20
3.39225
 10
2.35086
 20
3.38894
 10
2.26438
 20
3.38146
 10
2.20335
 20
3.36789
 10
2.16976
 20
3.35156
 10
2.14372
 20
3.33501
 10
2.12663
 20
3.31619
 10
2.11996
 20
3.29292
 10
2.12549
 20
3.26812
 10
2.14268
 20
3.24567
 10
2.16938
 20
3.22499
 10
2.20335
 20
3.20535
 10
2.26247
 20
3.18875
 10
2.34467
 20
3.17703
 10
2.41769
 20
3.17019
 10
2.44922
 20
3.16792
 10
2.44922
 20
2.73449
 10
2.64925
 20
2.72613
 10
2.64925
 20
2.81782
 10
2.84511
 20
2.81782
 10
2.84511
 20
2.99283
 10
2.64925
 20
2.99283
 10
2.64925
 20
3.56793
 10
2.84511
 20
3.56793
 10
2.84511
 20
3.77632
 10
2.64925
 20
3.77632
 10
2.64925
 20
3.84299
 10
2.44922
 20
3.84299
  0
LWPOLYLINE
  5
205
330
3A6
100
AcDbEntity
  8
0
 62
     0
100
AcDbPolyline
 90
       17
 70
     1
 43
0.0
 10
2.20535
 20
2.64958
 10
2.15364
 20
2.60558
 10
2.09131
 20
2.5855
 10
2.02599
 20
2.59028
 10
1.96539
 20
2.62082
 10
1.92133
 20
2.67253
 10
1.90132
 20
2.73486
 10
1.90608
 20
2.80018
 10
1.93668
 20
2.86079
 10
1.98833
 20
2.90483
 10
2.05067
 20
2.92492
 10
2.116
 20
2.92014
 10
2.17665
 20
2.88954
 10
2.22065
 20
2.83789
 10
2.24072
 20
2.7755
 10
2.23589
 20
2.71018
 10
2.20535
 20
2.64958
  0
LWPOLYLINE
  5
206
330
3A6
100
AcDbEntity
  8
0
 62
     0
100
AcDbPolyline
 90
       19
 70
     1
 43
0.0
 10
2.24892
 20
2.73193
 10
2.68793
 20
2.38683
 10
2.71158
 20
2.35915
 10
2.72239
 20
2.32574
 10
2.71978
 20
2.29069
 10
2.70335
 20
2.25808
 10
2.67557
 20
2.23443
 10
2.64214
 20
2.22368
 10
2.6071
 20
2.22629
 10
2.5746
 20
2.24268
 10
2.13558
 20
2.58783
 10
2.11187
 20
2.61561
 10
2.10107
 20
2.64903
 10
2.10368
 20
2.68403
 10
2.12017
 20
2.71653
 10
2.14789
 20
2.74024
 10
2.18132
 20
2.75103
 10
2.21636
 20
2.74843
 10
2.24892
 20
2.73193
  0
ENDBLK
  5
3A8
330
3A6
100
AcDbEntity
  8
0
100
AcDbBlockEnd
  0
BLOCK
  5
3AA
330
3A9
100
AcDbEntity
  8
0
100
AcDbBlockBegin
  2
wlplS20BR_p
 70
     0
 10
0.0
 20
0.0
 30
0.0
  3
wlplS20BR_p
  1
wlplS20BR_p
  0
ARC
  5
249
330
3A9
100
AcDbEntity
  8
elem
  6
Continuous
 62
     8
420
  8421504
100
AcDbCircle
 10
-111.04035
 20
166.0
 30
0.0
 40
900.0
100
AcDbArc
 50
262.995821
 51
270.0
  0
LINE
  5
24A
330
3A9
100
AcDbEntity
  8
elem
  6
Continuous
 62
     8
420
  8421504
100
AcDbLine
 10
-424.65825
 20
-702.23631
 30
0.0
 11
-220.78792
 21
-727.2835299999999
 31
0.0
  0
LINE
  5
24B
330
3A9
100
AcDbEntity
  8
elem
  6
Continuous
 62
     8
420
  8421504
100
AcDbLine
 10
-111.04035
 20
-734.0
 30
0.0
 11
-37.0
 21
-734.0
 31
0.0
  0
ARC
  5
24C
330
3A9
100
AcDbEntity
  8
elem
  6
Continuous
 62
     8
420
  8421504
100
AcDbCircle
 10
111.04035
 20
166.0
 30
0.0
 40
900.0
100
AcDbArc
 50
270.0
 51
277.004179
  0
LINE
  5
24D
330
3A9
100
AcDbEntity
  8
elem
  6
Continuous
 62
     8
420
  8421504
100
AcDbLine
 10
-34.0
 20
-734.0
 30
0.0
 11
111.04035
 21
-734.0
 31
0.0
  0
LINE
  5
24E
330
3A9
100
AcDbEntity
  8
elem
  6
Continuous
 62
     8
420
  8421504
100
AcDbLine
 10
424.65825
 20
-702.23631
 30
0.0
 11
220.78792
 21
-727.2835299999999
 31
0.0
  0
LINE
  5
24F
330
3A9
100
AcDbEntity
  8
elem
  6
Continuous
 62
     8
420
  8421504
100
AcDbLine
 10
-451.0
 20
-630.0
 30
0.0
 11
451.0
 21
-630.0
 31
0.0
  0
LINE
  5
250
330
3A9
100
AcDbEntity
  8
elem
  6
Continuous
 62
     8
420
  8421504
100
AcDbLine
 10
451.0
 20
-630.0
 30
0.0
 11
451.0
 21
-30.0
 31
0.0
  0
LINE
  5
251
330
3A9
100
AcDbEntity
  8
elem
  6
Continuous
 62
     8
420
  8421504
100
AcDbLine
 10
451.0
 20
-30.0
 30
0.0
 11
-451.0
 21
-30.0
 31
0.0
  0
LINE
  5
252
330
3A9
100
AcDbEntity
  8
elem
  6
Continuous
 62
     8
420
  8421504
100
AcDbLine
 10
-451.0
 20
-30.0
 30
0.0
 11
-451.0
 21
-630.0
 31
0.0
  0
LINE
  5
253
330
3A9
100
AcDbEntity
  8
elem
  6
Continuous
 62
     8
420
  8421504
100
AcDbLine
 10
-37.0
 20
-644.0
 30
0.0
 11
-37.0
 21
-734.0
 31
0.0
  0
LINE
  5
254
330
3A9
100
AcDbEntity
  8
elem
  6
Continuous
 62
     8
420
  8421504
100
AcDbLine
 10
-34.0
 20
-734.0
 30
0.0
 11
-34.0
 21
-644.0
 31
0.0
  0
LINE
  5
255
330
3A9
100
AcDbEntity
  8
elem
  6
Continuous
 62
     8
420
  8421504
100
AcDbLine
 10
-451.0
 20
-644.0
 30
0.0
 11
-37.0
 21
-644.0
 31
0.0
  0
LINE
  5
256
330
3A9
100
AcDbEntity
  8
elem
  6
Continuous
 62
     8
420
  8421504
100
AcDbLine
 10
-34.0
 20
-644.0
 30
0.0
 11
451.0
 21
-644.0
 31
0.0
  0
ARC
  5
257
330
3A9
100
AcDbEntity
  8
elem
  6
Continuous
 62
     8
420
  8421504
100
AcDbCircle
 10
-421.0
 20
-672.46019
 30
0.0
 40
30.0
100
AcDbArc
 50
180.0
 51
262.995821
  0
LINE
  5
258
330
3A9
100
AcDbEntity
  8
elem
  6
Continuous
 62
     8
420
  8421504
100
AcDbLine
 10
-451.0
 20
-644.0
 30
0.0
 11
-451.0
 21
-672.46019
 31
0.0
  0
ARC
  5
259
330
3A9
100
AcDbEntity
  8
elem
  6
Continuous
 62
     8
420
  8421504
100
AcDbCircle
 10
421.0
 20
-672.46019
 30
0.0
 40
30.0
100
AcDbArc
 50
277.004179
 51
0.0
  0
LINE
  5
25A
330
3A9
100
AcDbEntity
  8
elem
  6
Continuous
 62
     8
420
  8421504
100
AcDbLine
 10
451.0
 20
-644.0
 30
0.0
 11
451.0
 21
-672.46019
 31
0.0
  0
ENDBLK
  5
3AB
330
3A9
100
AcDbEntity
  8
0
100
AcDbBlockEnd
  0
BLOCK
  5
3AD
330
3AC
100
AcDbEntity
  8
0
100
AcDbBlockBegin
  2
sink
 70
     0
 10
0.0
 20
0.0
 30
0.0
  3
sink
  1
sink
  0
ELLIPSE
  5
225
330
3AC
100
AcDbEntity
  8
0
100
AcDbEllipse
 10
0.0
 20
139.9999999999997
 30
0.0
 11
160.0000000000001
 21
0.0
 31
0.0
210
0.0
220
0.0
230
1.0
 40
0.3749999999999972
 41
4.806276855492206
 42
6.283185307179586
  0
CIRCLE
  5
226
330
3AC
100
AcDbEntity
  8
0
100
AcDbCircle
 10
0.0
 20
170.0
 30
0.0
 40
10.0000000000002
  0
CIRCLE
  5
227
330
3AC
100
AcDbEntity
  8
0
100
AcDbCircle
 10
0.0
 20
170.0
 30
0.0
 40
12.0
  0
LINE
  5
228
330
3AC
100
AcDbEntity
  8
0
100
AcDbLine
 10
-49.9999999999998
 20
60.0000000000005
 30
0.0
 11
-59.99999999999979
 21
49.9999999999999
 31
0.0
  0
LINE
  5
229
330
3AC
100
AcDbEntity
  8
0
100
AcDbLine
 10
-59.99999999999979
 20
49.9999999999999
 30
0.0
 11
-49.9999999999998
 21
40.0000000000001
 31
0.0
  0
LINE
  5
22A
330
3AC
100
AcDbEntity
  8
0
100
AcDbLine
 10
-49.9999999999998
 20
40.0000000000001
 30
0.0
 11
-39.9999999999998
 21
49.9999999999999
 31
0.0
  0
LINE
  5
22B
330
3AC
100
AcDbEntity
  8
0
100
AcDbLine
 10
-39.9999999999998
 20
49.9999999999999
 30
0.0
 11
-49.9999999999998
 21
60.0000000000005
 31
0.0
  0
LINE
  5
22C
330
3AC
100
AcDbEntity
  8
0
100
AcDbLine
 10
50.0000000000003
 20
60.0000000000005
 30
0.0
 11
40.0
 21
50.0000000000007
 31
0.0
  0
LINE
  5
22D
330
3AC
100
AcDbEntity
  8
0
100
AcDbLine
 10
40.0
 20
50.0000000000007
 30
0.0
 11
50.0000000000003
 21
40.0000000000001
 31
0.0
  0
LINE
  5
22E
330
3AC
100
AcDbEntity
  8
0
100
AcDbLine
 10
50.0000000000003
 20
40.0000000000001
 30
0.0
 11
60.0000000000005
 21
50.0000000000007
 31
0.0
  0
LINE
  5
22F
330
3AC
100
AcDbEntity
  8
0
100
AcDbLine
 10
60.0000000000005
 20
50.0000000000007
 30
0.0
 11
50.0000000000003
 21
60.0000000000005
 31
0.0
  0
ELLIPSE
  5
230
330
3AC
100
AcDbEntity
  8
0
100
AcDbEllipse
 10
0.0
 20
140.0000000000006
 30
0.0
 11
-160.0
 21
1.959430000000000E-14
 31
0.0
210
0.0
220
0.0
230
1.0
 40
0.8750000000000002
 41
3.141589999984035
 42
6.283185307179586
  0
ARC
  5
231
330
3AC
100
AcDbEntity
  8
0
100
AcDbCircle
 10
0.0
 20
100.0000000000006
 30
0.0
 40
199.9999999999993
100
AcDbArc
 50
329.9999999999998
 51
210.0000000000003
  0
ARC
  5
232
330
3AC
100
AcDbEntity
  8
0
100
AcDbCircle
 10
-126.4911064067349
 20
70.0000000000004
 30
0.0
 40
50.0
100
AcDbArc
 50
193.3423637970882
 51
270.0
  0
ARC
  5
233
330
3AC
100
AcDbEntity
  8
0
100
AcDbCircle
 10
126.4911064067347
 20
70.0000000000003
 30
0.0
 40
50.0
100
AcDbArc
 50
270.0
 51
346.6576362029118
  0
ARC
  5
234
330
3AC
100
AcDbEntity
  8
0
100
AcDbCircle
 10
0.0
 20
100.0000000000006
 30
0.0
 40
179.9999999999997
100
AcDbArc
 50
346.6576362029116
 51
193.3423637970883
  0
LINE
  5
235
330
3AC
100
AcDbEntity
  8
0
100
AcDbLine
 10
126.4911064067347
 20
20.0000000000006
 30
0.0
 11
-126.4911064067349
 21
20.0000000000004
 31
0.0
  0
LINE
  5
236
330
3AC
100
AcDbEntity
  8
0
100
AcDbLine
 10
173.2050807568868
 20
0.0
 30
0.0
 11
-173.2050807568868
 21
0.0
 31
0.0
  0
LINE
  5
237
330
3AC
100
AcDbEntity
  8
0
100
AcDbLine
 10
15.0000000000001
 20
120.000000000001
 30
0.0
 11
15.0000000000001
 21
50.0000000000007
 31
0.0
  0
LINE
  5
238
330
3AC
100
AcDbEntity
  8
0
100
AcDbLine
 10
-14.9999999999999
 20
50.0000000000007
 30
0.0
 11
-14.9999999999999
 21
120.000000000001
 31
0.0
  0
ARC
  5
239
330
3AC
100
AcDbEntity
  8
0
100
AcDbCircle
 10
0.0
 20
120.0000000000001
 30
0.0
 40
15.0000000000001
100
AcDbArc
 50
0.0
 51
180.0
  0
ARC
  5
23A
330
3AC
100
AcDbEntity
  8
0
100
AcDbCircle
 10
0.0
 20
49.9999999999999
 30
0.0
 40
14.9999999999999
100
AcDbArc
 50
180.0
 51
0.0
  0
ELLIPSE
  5
23B
330
3AC
100
AcDbEntity
  8
0
100
AcDbEllipse
 10
0.0
 20
139.9999999999997
 30
0.0
 11
-160.0000000000001
 21
0.0
 31
0.0
210
0.0
220
0.0
230
1.0
 40
0.3749999999999972
 41
0.0
 42
1.476908451687381
  0
ENDBLK
  5
3AE
330
3AC
100
AcDbEntity
  8
0
100
AcDbBlockEnd
  0
BLOCK
  5
3B0
330
3AF
100
AcDbEntity
  8
0
100
AcDbBlockBegin
  2
bed_single_90_200
 70
     0
 10
0.0
 20
0.0
 30
0.0
  3
bed_single_90_200
  1
bed_single_90_200
  0
ARC
  5
1BB
330
3AF
100
AcDbEntity
  8
0
100
AcDbCircle
 10
538.3663493989482
 20
1450.0
 30
0.0
 40
50.0
100
AcDbArc
 50
90.0
 51
165.0000000000003
  0
ARC
  5
1BC
330
3AF
100
AcDbEntity
  8
0
100
AcDbCircle
 10
531.5298788878985
 20
1400.0
 30
0.0
 40
100.0
100
AcDbArc
 50
90.0
 51
125.0
  0
ARC
  5
1BD
330
3AF
100
AcDbEntity
  8
0
100
AcDbCircle
 10
850.0000000000001
 20
1450.0
 30
0.0
 40
50.0
100
AcDbArc
 50
0.0
 51
90.0
  0
LINE
  5
1BE
330
3AF
100
AcDbEntity
  8
0
100
AcDbLine
 10
348.928556583162
 20
936.1936975955937
 30
0.0
 11
490.0700580844946
 21
1462.940952255126
 31
0.0
  0
LINE
  5
1BF
330
3AF
100
AcDbEntity
  8
0
100
AcDbLine
 10
-0.000000000002
 20
1149.896230895144
 30
0.0
 11
474.1722352527938
 21
1481.915204428899
 31
0.0
  0
LINE
  5
1C0
330
3AF
100
AcDbEntity
  8
0
100
AcDbLine
 10
531.5298788878985
 20
1500.0
 30
0.0
 11
850.0000000000001
 21
1500.0
 31
0.0
  0
ARC
  5
1C1
330
3AF
100
AcDbEntity
  8
0
100
AcDbCircle
 10
200.0000000000001
 20
1850.0
 30
0.0
 40
50.0
100
AcDbArc
 50
90.0
 51
180.0
  0
LINE
  5
1C2
330
3AF
100
AcDbEntity
  8
0
100
AcDbLine
 10
150.0000000000001
 20
1650.0
 30
0.0
 11
150.0000000000001
 21
1850.0
 31
0.0
  0
ARC
  5
1C3
330
3AF
100
AcDbEntity
  8
0
100
AcDbCircle
 10
200.0000000000001
 20
1650.0
 30
0.0
 40
50.0
100
AcDbArc
 50
180.0
 51
270.0
  0
ARC
  5
1C4
330
3AF
100
AcDbEntity
  8
0
100
AcDbCircle
 10
700.0000000000001
 20
1650.0
 30
0.0
 40
50.0
100
AcDbArc
 50
270.0
 51
0.0
  0
LINE
  5
1C5
330
3AF
100
AcDbEntity
  8
0
100
AcDbLine
 10
750.0000000000001
 20
1850.0
 30
0.0
 11
750.0000000000001
 21
1650.0
 31
0.0
  0
ARC
  5
1C6
330
3AF
100
AcDbEntity
  8
0
100
AcDbCircle
 10
700.0000000000001
 20
1850.0
 30
0.0
 40
50.0
100
AcDbArc
 50
0.0
 51
90.0
  0
LINE
  5
1C7
330
3AF
100
AcDbEntity
  8
0
100
AcDbLine
 10
700.0000000000001
 20
1600.0
 30
0.0
 11
200.0000000000001
 21
1600.0
 31
0.0
  0
LINE
  5
1C8
330
3AF
100
AcDbEntity
  8
0
100
AcDbLine
 10
200.0000000000001
 20
1900.0
 30
0.0
 11
700.0000000000001
 21
1900.0
 31
0.0
  0
LINE
  5
1C9
330
3AF
100
AcDbEntity
  8
0
100
AcDbLine
 10
473.2050807568877
 20
1400.0
 30
0.0
 11
899.9999999999999
 21
1400.0
 31
0.0
  0
LINE
  5
1CA
330
3AF
100
AcDbEntity
  8
0
100
AcDbLine
 10
239.3950216991268
 20
913.779310791393
 30
0.0
 11
372.5625646878168
 21
1410.767347144297
 31
0.0
  0
LINE
  5
1CB
330
3AF
100
AcDbEntity
  8
0
100
AcDbLine
 10
287.6913130135825
 20
900.8383585362662
 30
0.0
 11
-0.000000000002
 21
977.9250135277056
 31
0.0
  0
ARC
  5
1CC
330
3AF
100
AcDbEntity
  8
0
100
AcDbCircle
 10
300.6322652687086
 20
949.1346498507197
 30
0.0
 40
50.0
100
AcDbArc
 50
255.0
 51
345.0
  0
ARC
  5
1CD
330
3AF
100
AcDbEntity
  8
0
100
AcDbCircle
 10
850.0000000000001
 20
1950.0
 30
0.0
 40
50.0
100
AcDbArc
 50
0.0
 51
90.0
  0
LINE
  5
1CE
330
3AF
100
AcDbEntity
  8
0
100
AcDbLine
 10
850.0000000000001
 20
2000.0
 30
0.0
 11
50.0
 21
2000.0
 31
0.0
  0
ARC
  5
1CF
330
3AF
100
AcDbEntity
  8
0
100
AcDbCircle
 10
50.0
 20
1950.0
 30
0.0
 40
50.0
100
AcDbArc
 50
89.99999999999996
 51
180.0
  0
LINE
  5
1D0
330
3AF
100
AcDbEntity
  8
0
100
AcDbLine
 10
0.0
 20
1950.0
 30
0.0
 11
0.0
 21
50.0000000000003
 31
0.0
  0
ARC
  5
1D1
330
3AF
100
AcDbEntity
  8
0
100
AcDbCircle
 10
50.0
 20
50.0
 30
0.0
 40
50.0
100
AcDbArc
 50
180.0
 51
270.0
  0
LINE
  5
1D2
330
3AF
100
AcDbEntity
  8
0
100
AcDbLine
 10
900.0000000000001
 20
50.0
 30
0.0
 11
900.0000000000001
 21
1950.0
 31
0.0
  0
LINE
  5
1D3
330
3AF
100
AcDbEntity
  8
0
100
AcDbLine
 10
50.0
 20
0.0
 30
0.0
 11
850.0000000000001
 21
0.0
 31
0.0
  0
ARC
  5
1D4
330
3AF
100
AcDbEntity
  8
0
100
AcDbCircle
 10
850.0000000000001
 20
50.0
 30
0.0
 40
50.0
100
AcDbArc
 50
270.0
 51
0.0
  0
ENDBLK
  5
3B1
330
3AF
100
AcDbEntity
  8
0
100
AcDbBlockEnd
  0
BLOCK
  5
3B3
330
3B2
100
AcDbEntity
  8
0
100
AcDbBlockBegin
  2
opel_vivaro_top_view
 70
     0
 10
0.0
 20
0.0
 30
0.0
  3
opel_vivaro_top_view
  1
opel_vivaro_top_view
  0
LWPOLYLINE
  5
3D
330
3B2
100
AcDbEntity
  8
0
100
AcDbPolyline
 90
       43
 70
     0
 43
0.0
 10
0.1487699296521168
 20
2.040636155762177
 10
0.1274499296521165
 20
1.891866155762178
 10
0.114159929652117
 20
1.703176155762178
 10
0.1073199296521166
 20
1.487786155762178
 10
0.1054199296521166
 20
1.258996155762178
 10
0.1073199296521166
 20
1.030866155762178
 10
0.1140999296521166
 20
0.815856155762178
 10
0.1272299296521169
 20
0.6274361557621777
 10
0.1482299296521168
 20
0.478896155762178
 10
0.1805599296521168
 20
0.3947961557621777
 10
0.2376299296521172
 20
0.3357761557621779
 10
0.3167899296521171
 20
0.3018161557621779
 10
0.4151599296521171
 20
0.2928561557621778
 10
4.620989929652117
 20
0.2928561557621778
 10
4.760359929652116
 20
0.2918261557621777
 10
4.887749929652117
 20
0.292746155762178
 10
4.995109929652116
 20
0.2970361557621777
 10
5.074429929652117
 20
0.306096155762178
 10
5.202049929652118
 20
0.3385361557621778
 10
5.304639929652117
 20
0.3827561557621779
 10
5.377819929652118
 20
0.440046155762178
 10
5.417489929652117
 20
0.5116561557621777
 10
5.452909929652117
 20
0.6719261557621778
 10
5.477819929652117
 20
0.8550761557621778
 10
5.492419929652117
 20
1.053496155762178
 10
5.497319929652116
 20
1.259546155762178
 10
5.492519929652117
 20
1.465646155762178
 10
5.478019929652117
 20
1.664276155762177
 10
5.453349929652116
 20
1.847596155762178
 10
5.418029929652118
 20
2.007906155762178
 10
5.378309929652117
 20
2.079536155762177
 10
5.304909929652117
 20
2.136606155762178
 10
5.202159929652117
 20
2.180656155762178
 10
5.074429929652117
 20
2.212936155762178
 10
4.995109929652116
 20
2.222106155762178
 10
4.887749929652117
 20
2.226606155762178
 10
4.760359929652116
 20
2.227706155762178
 10
4.620989929652117
 20
2.226656155762178
 10
0.4151599296521171
 20
2.226656155762178
 10
0.3168499296521166
 20
2.217546155762178
 10
0.2379099296521172
 20
2.183646155762178
 10
0.1809899296521165
 20
2.124726155762178
 10
0.1487699296521168
 20
2.040636155762177
  0
LWPOLYLINE
  5
3E
330
3B2
100
AcDbEntity
  8
0
100
AcDbPolyline
 90
       24
 70
     0
 43
0.0
 10
4.146919929652118
 20
0.3214561557621778
 10
3.409129929652117
 20
0.359856155762178
 10
3.346519929652117
 20
0.366426155762178
 10
3.299639929652117
 20
0.3776061557621779
 10
3.269319929652116
 20
0.3917561557621778
 10
3.256409929652117
 20
0.4071561557621779
 10
3.240499929652117
 20
0.4681461557621778
 10
3.246809929652117
 20
0.4769361557621781
 10
3.268929929652117
 20
0.483776155762178
 10
3.304479929652117
 20
0.4882161557621778
 10
3.350979929652117
 20
0.4897961557621779
 10
3.493709929652116
 20
0.4897961557621779
 10
3.703559929652117
 20
0.4852861557621777
 10
3.866269929652116
 20
0.4703161557621778
 10
4.159609929652117
 20
0.4259961557621779
 10
4.203669929652117
 20
0.4181361557621779
 10
4.238229929652118
 20
0.4089561557621777
 10
4.260699929652118
 20
0.3984761557621779
 10
4.268499929652117
 20
0.3868261557621779
 10
4.267419929652117
 20
0.3356061557621777
 10
4.256239929652116
 20
0.3288861557621781
 10
4.227549929652117
 20
0.323786155762178
 10
4.188699929652117
 20
0.3210661557621779
 10
4.146919929652118
 20
0.3214561557621778
  0
LWPOLYLINE
  5
3F
330
3B2
100
AcDbEntity
  8
0
100
AcDbPolyline
 90
       14
 70
     0
 43
0.0
 10
3.818199929652117
 20
0.470966155762178
 10
3.873159929652116
 20
0.3409761557621778
 10
3.410159929652117
 20
0.365286155762178
 10
3.311849929652117
 20
0.3795461557621778
 10
3.280109929652117
 20
0.3913261557621777
 10
3.263839929652117
 20
0.4072161557621778
 10
3.255159929652117
 20
0.431576155762178
 10
3.246359929652117
 20
0.468856155762178
 10
3.259389929652117
 20
0.4762861557621778
 10
3.288849929652117
 20
0.4811761557621779
 10
3.320159929652116
 20
0.4838861557621779
 10
3.338819929652117
 20
0.4846861557621778
 10
3.578729929652116
 20
0.4839961557621777
 10
3.818199929652117
 20
0.470966155762178
  0
LWPOLYLINE
  5
40
330
3B2
100
AcDbEntity
  8
0
100
AcDbPolyline
 90
       13
 70
     0
 43
0.0
 10
3.924979929652118
 20
0.3383161557621777
 10
3.872069929652117
 20
0.4630461557621777
 10
4.056099929652117
 20
0.4384061557621779
 10
4.237309929652117
 20
0.403856155762178
 10
4.257169929652116
 20
0.3942561557621778
 10
4.264229929652117
 20
0.381886155762178
 10
4.264169929652116
 20
0.3638161557621777
 10
4.262639929652117
 20
0.3372261557621781
 10
4.243659929652116
 20
0.3311561557621778
 10
4.211269929652117
 20
0.3280061557621781
 10
4.178229929652117
 20
0.3268661557621777
 10
4.157499929652117
 20
0.3266561557621777
 10
3.924979929652118
 20
0.3383161557621777
  0
LWPOLYLINE
  5
41
330
3B2
100
AcDbEntity
  8
0
100
AcDbPolyline
 90
       18
 70
     0
 43
0.0
 10
4.269529929652117
 20
0.3266561557621777
 10
4.291669929652118
 20
0.3210061557621779
 10
4.316569929652116
 20
0.3002261557621777
 10
4.331709929652117
 20
0.2782561557621777
 10
4.334479929652117
 20
0.2584061557621777
 10
4.329599929652117
 20
0.2375761557621781
 10
4.321889929652118
 20
0.2125061557621777
 10
4.316199929652116
 20
0.1899961557621777
 10
4.312499929652116
 20
0.176156155762178
 10
4.305989929652117
 20
0.1623661557621778
 10
4.291779929652117
 20
0.1401361557621779
 10
4.265029929652117
 20
0.1182161557621777
 10
4.228849929652117
 20
0.113716155762178
 10
4.208879929652117
 20
0.121576155762178
 10
4.202419929652116
 20
0.1401361557621779
 10
4.243109929652118
 20
0.3002261557621777
 10
4.252109929652116
 20
0.318846155762178
 10
4.269529929652117
 20
0.3266561557621777
  0
LWPOLYLINE
  5
42
330
3B2
100
AcDbEntity
  8
0
100
AcDbPolyline
 90
       12
 70
     0
 43
0.0
 10
4.272199929652118
 20
0.3266561557621777
 10
4.294659929652116
 20
0.3194361557621779
 10
4.317109929652117
 20
0.3002261557621777
 10
4.328179929652118
 20
0.2849361557621779
 10
4.342239929652116
 20
0.3128261557621776
 10
4.350479929652117
 20
0.3439061557621779
 10
4.349389929652117
 20
0.3694061557621779
 10
4.335559929652117
 20
0.3805761557621778
 10
4.306919929652118
 20
0.3807461557621781
 10
4.288529929652118
 20
0.3768961557621777
 10
4.273229929652118
 20
0.3581161557621777
 10
4.272199929652118
 20
0.3266561557621777
  0
LWPOLYLINE
  5
43
330
3B2
100
AcDbEntity
  8
0
100
AcDbPolyline
 90
       13
 70
     0
 43
0.0
 10
3.299209929652116
 20
0.3531361557621779
 10
3.331979929652117
 20
0.3531361557621779
 10
3.360629929652116
 20
0.350636155762178
 10
3.372669929652117
 20
0.3447161557621778
 10
3.372669929652117
 20
0.3144561557621777
 10
3.360849929652117
 20
0.3085861557621778
 10
3.331979929652117
 20
0.306096155762178
 10
3.299209929652116
 20
0.306096155762178
 10
3.270299929652117
 20
0.308536155762178
 10
3.258459929652117
 20
0.3144561557621777
 10
3.258459929652117
 20
0.3447161557621778
 10
3.270299929652117
 20
0.3507461557621778
 10
3.299209929652116
 20
0.3531361557621779
  0
LWPOLYLINE
  5
44
330
3B2
100
AcDbEntity
  8
0
100
AcDbPolyline
 90
       13
 70
     0
 43
0.0
 10
2.977319929652117
 20
0.353616155762178
 10
3.010099929652116
 20
0.353616155762178
 10
3.038739929652117
 20
0.351176155762178
 10
3.050779929652117
 20
0.3452561557621778
 10
3.050779929652117
 20
0.3149361557621777
 10
3.038909929652116
 20
0.3091361557621779
 10
3.010099929652116
 20
0.306636155762178
 10
2.977319929652117
 20
0.306636155762178
 10
2.948409929652117
 20
0.309076155762178
 10
2.936639929652117
 20
0.3149361557621777
 10
2.936639929652117
 20
0.3452561557621778
 10
2.948409929652117
 20
0.3512261557621779
 10
2.977319929652117
 20
0.353616155762178
  0
LWPOLYLINE
  5
45
330
3B2
100
AcDbEntity
  8
0
100
AcDbPolyline
 90
       47
 70
     0
 43
0.0
 10
3.180839929652117
 20
0.5427961557621779
 10
3.181529929652116
 20
0.518006155762178
 10
3.431699929652117
 20
0.5170861557621778
 10
3.649309929652118
 20
0.5154561557621777
 10
3.812019929652116
 20
0.512316155762178
 10
3.897739929652117
 20
0.506886155762178
 10
3.897739929652117
 20
0.507966155762178
 10
4.078949929652117
 20
0.4784561557621778
 10
4.237199929652117
 20
0.4455261557621779
 10
4.378699929652116
 20
0.4214961557621777
 10
4.509559929652116
 20
0.4186761557621779
 10
4.550129929652117
 20
0.4257161557621778
 10
4.583169929652117
 20
0.437606155762178
 10
4.609549929652117
 20
0.4537761557621778
 10
4.630269929652117
 20
0.4735761557621778
 10
4.646379929652117
 20
0.4964661557621777
 10
4.658809929652117
 20
0.5217461557621781
 10
4.668569929652117
 20
0.5488861557621778
 10
4.676659929652116
 20
0.5772061557621777
 10
4.743979929652117
 20
0.9195961557621777
 10
4.765459929652117
 20
1.259546155762178
 10
4.745499929652118
 20
1.599176155762178
 10
4.677419929652118
 20
1.940746155762178
 10
4.669109929652118
 20
1.968966155762178
 10
4.659239929652117
 20
1.995926155762178
 10
4.646749929652117
 20
2.021156155762178
 10
4.630639929652117
 20
2.043996155762178
 10
4.609919929652117
 20
2.063796155762178
 10
4.583499929652117
 20
2.079906155762178
 10
4.550349929652118
 20
2.091786155762178
 10
4.509559929652116
 20
2.098786155762178
 10
4.378809929652117
 20
2.096246155762178
 10
4.237479929652118
 20
2.072256155762178
 10
4.079269929652117
 20
2.039326155762178
 10
3.897739929652117
 20
2.009976155762178
 10
3.897739929652117
 20
2.010526155762178
 10
3.800779929652117
 20
1.998906155762178
 10
3.795519929652118
 20
1.974606155762178
 10
3.889599929652118
 20
1.986756155762178
 10
3.929529929652118
 20
1.619676155762177
 10
3.945479929652118
 20
1.258406155762178
 10
3.928879929652117
 20
0.8972461557621778
 10
3.888779929652117
 20
0.5311861557621778
 10
3.820639929652117
 20
0.5388461557621778
 10
3.681639929652118
 20
0.5421461557621781
 10
3.469239929652117
 20
0.5429661557621777
 10
3.180839929652117
 20
0.5427961557621779
  0
LWPOLYLINE
  5
46
330
3B2
100
AcDbEntity
  8
0
100
AcDbPolyline
 90
       31
 70
     0
 43
0.0
 10
3.930299929652117
 20
1.826606155762178
 10
3.961269929652117
 20
1.463596155762178
 10
3.962999929652117
 20
1.099386155762178
 10
3.927089929652118
 20
0.6665461557621777
 10
3.909609929652117
 20
0.526956155762178
 10
4.161739929652116
 20
0.4806361557621779
 10
4.414389929652117
 20
0.4382061557621779
 10
4.474179929652117
 20
0.4364661557621781
 10
4.533909929652117
 20
0.442756155762178
 10
4.587519929652117
 20
0.4638561557621781
 10
4.628959929652117
 20
0.506346155762178
 10
4.647739929652117
 20
0.548176155762178
 10
4.662279929652117
 20
0.5953661557621777
 10
4.673729929652117
 20
0.6437161557621778
 10
4.683379929652117
 20
0.6887461557621779
 10
4.732919929652116
 20
0.9974361557621778
 10
4.745609929652117
 20
1.313366155762178
 10
4.720809929652116
 20
1.628356155762178
 10
4.657989929652118
 20
1.934396155762178
 10
4.646059929652116
 20
1.972816155762178
 10
4.630379929652117
 20
2.007706155762178
 10
4.607749929652117
 20
2.037476155762178
 10
4.575029929652118
 20
2.060706155762178
 10
4.496809929652116
 20
2.078996155762177
 10
4.409779929652117
 20
2.078436155762178
 10
4.322269929652117
 20
2.066886155762178
 10
4.242629929652116
 20
2.051756155762178
 10
3.911739929652116
 20
1.990456155762178
 10
3.912879929652117
 20
1.967006155762178
 10
3.916499929652117
 20
1.942386155762178
 10
3.930299929652117
 20
1.826606155762178
  0
LWPOLYLINE
  5
47
330
3B2
100
AcDbEntity
  8
0
100
AcDbPolyline
 90
       13
 70
     0
 43
0.0
 10
4.862629929652117
 20
1.336036155762178
 10
4.823459929652117
 20
1.775066155762178
 10
4.828499929652116
 20
1.782866155762178
 10
4.839799929652116
 20
1.786076155762178
 10
4.925629929652116
 20
1.773536155762178
 10
4.938749929652117
 20
1.767846155762178
 10
4.944179929652117
 20
1.759866155762178
 10
4.981069929652117
 20
1.346616155762178
 10
4.976609929652117
 20
1.339896155762178
 10
4.964739929652117
 20
1.335546155762178
 10
4.880639929652117
 20
1.328066155762178
 10
4.868229929652117
 20
1.329796155762178
 10
4.862629929652117
 20
1.336036155762178
  0
LWPOLYLINE
  5
48
330
3B2
100
AcDbEntity
  8
0
100
AcDbPolyline
 90
       21
 70
     0
 43
0.0
 10
5.015849929652116
 20
0.5142561557621779
 10
5.012529929652118
 20
0.469936155762178
 10
5.018779929652117
 20
0.4319661557621779
 10
5.033959929652116
 20
0.401956155762178
 10
5.057299929652117
 20
0.3817161557621778
 10
5.087999929652117
 20
0.372936155762178
 10
5.125489929652117
 20
0.377216155762178
 10
5.168949929652117
 20
0.3963161557621779
 10
5.217729929652117
 20
0.4318561557621781
 10
5.256629929652117
 20
0.4740661557621779
 10
5.299529929652117
 20
0.5440461557621781
 10
5.333989929652116
 20
0.6439761557621777
 10
5.347709929652117
 20
0.7759261557621779
 10
5.305339929652117
 20
0.761226155762178
 10
5.255979929652117
 20
0.7382761557621778
 10
5.203299929652117
 20
0.7086561557621778
 10
5.150819929652117
 20
0.6738861557621778
 10
5.102209929652117
 20
0.6355261557621779
 10
5.061139929652116
 20
0.5951061557621777
 10
5.031089929652117
 20
0.5541861557621779
 10
5.015849929652116
 20
0.5142561557621779
  0
LWPOLYLINE
  5
49
330
3B2
100
AcDbEntity
  8
0
100
AcDbPolyline
 90
       13
 70
     0
 43
0.0
 10
0.3715899296521172
 20
1.408526155762178
 10
0.3715899296521172
 20
1.316076155762178
 10
0.3694199296521168
 20
1.300776155762178
 10
0.3642699296521172
 20
1.294366155762178
 10
0.3536299296521168
 20
1.294366155762178
 10
0.3483599296521165
 20
1.300776155762178
 10
0.3462499296521173
 20
1.316076155762178
 10
0.3462499296521173
 20
1.408526155762178
 10
0.3483599296521165
 20
1.423886155762178
 10
0.3536299296521168
 20
1.430226155762178
 10
0.3642699296521172
 20
1.430226155762178
 10
0.3694199296521168
 20
1.423886155762178
 10
0.3715899296521172
 20
1.408526155762178
  0
LWPOLYLINE
  5
4A
330
3B2
100
AcDbEntity
  8
0
100
AcDbPolyline
 90
       25
 70
     0
 43
0.0
 10
0.3448899296521173
 20
1.890026155762178
 10
0.3399099296521166
 20
1.932826155762178
 10
0.328779929652117
 20
1.950246155762178
 10
0.2510899296521165
 20
1.950246155762178
 10
0.2400699296521172
 20
1.943846155762178
 10
0.2246699296521166
 20
1.927296155762177
 10
0.2108399296521171
 20
1.904786155762178
 10
0.2046399296521173
 20
1.880476155762178
 10
0.1918499296521166
 20
1.700956155762178
 10
0.1818099296521165
 20
1.542096155762178
 10
0.1752999296521169
 20
1.396746155762178
 10
0.1730199296521171
 20
1.257906155762178
 10
0.1752399296521165
 20
1.120106155762178
 10
0.1816399296521167
 20
0.9748661557621778
 10
0.1915699296521165
 20
0.8156461557621779
 10
0.2045399296521166
 20
0.6358461557621777
 10
0.2107299296521168
 20
0.6117061557621777
 10
0.2246099296521171
 20
0.5893561557621778
 10
0.2400699296521172
 20
0.5730261557621779
 10
0.2510899296521165
 20
0.566616155762178
 10
0.328779929652117
 20
0.566616155762178
 10
0.3397999296521172
 20
0.584036155762178
 10
0.3447299296521171
 20
0.6263561557621777
 10
0.3198799296521173
 20
1.258406155762178
 10
0.3448899296521173
 20
1.890026155762178
  0
LWPOLYLINE
  5
4B
330
3B2
100
AcDbEntity
  8
0
100
AcDbPolyline
 90
       24
 70
     0
 43
0.0
 10
0.2523399296521172
 20
1.944976155762178
 10
0.2373599296521167
 20
1.934786155762178
 10
0.224449929652117
 20
1.917476155762178
 10
0.2148499296521171
 20
1.897676155762178
 10
0.2100699296521169
 20
1.879976155762177
 10
0.1903199296521167
 20
1.612616155762177
 10
0.1794199296521173
 20
1.344076155762178
 10
0.186089929652117
 20
0.9898561557621779
 10
0.2095299296521169
 20
0.6363861557621777
 10
0.2148499296521171
 20
0.619076155762178
 10
0.2245599296521172
 20
0.5994361557621777
 10
0.2374199296521171
 20
0.5821861557621779
 10
0.2523399296521172
 20
0.5719361557621778
 10
0.3289999296521167
 20
0.5719361557621778
 10
0.3381099296521173
 20
0.6062761557621781
 10
0.3394199296521165
 20
0.647346155762178
 10
0.3365399296521172
 20
0.6888561557621777
 10
0.3332299296521173
 20
0.7246561557621778
 10
0.3182499296521168
 20
1.031026155762178
 10
0.3152099296521165
 20
1.337716155762178
 10
0.3395199296521172
 20
1.890026155762178
 10
0.337179929652117
 20
1.918136155762178
 10
0.3289999296521167
 20
1.944976155762178
 10
0.2523399296521172
 20
1.944976155762178
  0
LWPOLYLINE
  5
4C
330
3B2
100
AcDbEntity
  8
0
100
AcDbPolyline
 90
       31
 70
     0
 43
0.0
 10
0.1493099296521168
 20
2.040636155762177
 10
0.1816999296521171
 20
2.124886155762177
 10
0.2389899296521172
 20
2.184026155762178
 10
0.3182499296521168
 20
2.217976155762178
 10
0.4167299296521172
 20
2.226656155762178
 10
0.4367999296521168
 20
2.226656155762178
 10
0.4505699296521168
 20
2.029026155762178
 10
0.1989499296521169
 20
2.041716155762177
 10
0.1731799296521173
 20
1.887146155762178
 10
0.1555999296521167
 20
1.698026155762178
 10
0.1455699296521171
 20
1.485616155762178
 10
0.1424199296521165
 20
1.261116155762178
 10
0.1452399296521172
 20
1.039706155762178
 10
0.1547399296521172
 20
0.8281761557621778
 10
0.171989929652117
 20
0.6376361557621779
 10
0.1984099296521169
 20
0.478896155762178
 10
0.449979929652117
 20
0.4910461557621777
 10
0.4362499296521172
 20
0.2933961557621778
 10
0.4167299296521172
 20
0.2933961557621778
 10
0.3182499296521168
 20
0.3021361557621778
 10
0.2389899296521172
 20
0.3360961557621778
 10
0.1816999296521171
 20
0.3952261557621779
 10
0.1493099296521168
 20
0.479436155762178
 10
0.1284199296521171
 20
0.6276461557621777
 10
0.1154599296521166
 20
0.8159661557621778
 10
0.1088399296521168
 20
1.031076155762178
 10
0.107049929652117
 20
1.259546155762178
 10
0.1064999296521165
 20
1.454636155762178
 10
0.1091099296521172
 20
1.652656155762178
 10
0.1212699296521169
 20
1.849386155762178
 10
0.1493099296521168
 20
2.040636155762177
  0
LWPOLYLINE
  5
4D
330
3B2
100
AcDbEntity
  8
0
100
AcDbPolyline
 90
        4
 70
     1
 43
0.0
 10
5.320809929652118
 20
0.766926155762178
 10
5.320809929652118
 20
0.768546155762178
 10
5.324429929652117
 20
0.768546155762178
 10
5.320809929652118
 20
0.766926155762178
  0
LWPOLYLINE
  5
4E
330
3B2
100
AcDbEntity
  8
0
100
AcDbPolyline
 90
        4
 70
     1
 43
0.0
 10
5.320209929652117
 20
1.749996155762178
 10
5.324429929652117
 20
1.748906155762178
 10
5.320209929652117
 20
1.748906155762178
 10
5.320209929652117
 20
1.749996155762178
  0
LWPOLYLINE
  5
4F
330
3B2
100
AcDbEntity
  8
0
100
AcDbPolyline
 90
       49
 70
     1
 43
0.0
 10
5.079209929652118
 20
2.143176155762178
 10
5.108299929652118
 20
2.143826155762178
 10
5.141449929652117
 20
2.135296155762178
 10
5.178339929652116
 20
2.116426155762178
 10
5.218749929652116
 20
2.086096155762178
 10
5.256729929652117
 20
2.044156155762177
 10
5.299209929652116
 20
1.975426155762178
 10
5.333929929652117
 20
1.877756155762178
 10
5.348739929652117
 20
1.748906155762178
 10
5.354059929652117
 20
1.748906155762178
 10
5.403379929652116
 20
1.529936155762178
 10
5.417489929652117
 20
1.281186155762178
 10
5.416949929652118
 20
1.281186155762178
 10
5.417489929652117
 20
1.278046155762178
 10
5.416409929652117
 20
1.236276155762178
 10
5.418519929652117
 20
1.236276155762178
 10
5.404199929652117
 20
0.9873561557621775
 10
5.354599929652117
 20
0.768546155762178
 10
5.348739929652117
 20
0.768546155762178
 10
5.333989929652116
 20
0.6395361557621779
 10
5.299379929652117
 20
0.5418861557621777
 10
5.256949929652118
 20
0.4732461557621779
 10
5.218749929652116
 20
0.431366155762178
 10
5.178389929652116
 20
0.4009761557621778
 10
5.141499929652117
 20
0.3819961557621778
 10
5.108519929652116
 20
0.373476155762178
 10
5.079699929652117
 20
0.374226155762178
 10
5.015249929652116
 20
0.298716155762178
 10
5.074979929652116
 20
0.306096155762178
 10
5.202529929652117
 20
0.3384261557621779
 10
5.304909929652117
 20
0.3824761557621779
 10
5.377929929652117
 20
0.4395461557621778
 10
5.417489929652117
 20
0.5111161557621777
 10
5.453179929652118
 20
0.6716461557621778
 10
5.478219929652116
 20
0.8548161557621778
 10
5.493019929652117
 20
1.053276155762178
 10
5.497819929652117
 20
1.259546155762178
 10
5.497819929652117
 20
1.281186155762178
 10
5.497319929652116
 20
1.281186155762178
 10
5.491819929652117
 20
1.481216155762178
 10
5.477019929652117
 20
1.673226155762178
 10
5.452309929652117
 20
1.850366155762178
 10
5.417489929652117
 20
2.005796155762178
 10
5.377929929652117
 20
2.077356155762178
 10
5.304909929652117
 20
2.134496155762178
 10
5.202529929652117
 20
2.178546155762178
 10
5.074979929652116
 20
2.210826155762178
 10
5.014769929652116
 20
2.218206155762178
 10
5.079209929652118
 20
2.143176155762178
  0
LWPOLYLINE
  5
50
330
3B2
100
AcDbEntity
  8
0
100
AcDbPolyline
 90
       24
 70
     0
 43
0.0
 10
4.147459929652117
 20
2.196496155762178
 10
3.409669929652117
 20
2.158036155762177
 10
3.346999929652116
 20
2.151576155762178
 10
3.300129929652117
 20
2.140396155762178
 10
3.269809929652117
 20
2.126246155762177
 10
3.256889929652117
 20
2.110786155762177
 10
3.241059929652117
 20
2.049796155762178
 10
3.247349929652117
 20
2.041066155762178
 10
3.269529929652117
 20
2.034226155762178
 10
3.305019929652117
 20
2.029786155762178
 10
3.351569929652117
 20
2.028146155762178
 10
3.494199929652117
 20
2.028146155762178
 10
3.704099929652116
 20
2.032756155762178
 10
3.866809929652117
 20
2.047636155762178
 10
4.160159929652117
 20
2.091956155762178
 10
4.204209929652118
 20
2.099866155762178
 10
4.238729929652116
 20
2.109046155762178
 10
4.261179929652117
 20
2.119526155762178
 10
4.268989929652117
 20
2.131116155762178
 10
4.267959929652116
 20
2.182346155762178
 10
4.256779929652117
 20
2.189116155762178
 10
4.228089929652118
 20
2.194216155762178
 10
4.189239929652118
 20
2.196936155762178
 10
4.147459929652117
 20
2.196496155762178
  0
LWPOLYLINE
  5
51
330
3B2
100
AcDbEntity
  8
0
100
AcDbPolyline
 90
       14
 70
     0
 43
0.0
 10
3.818199929652117
 20
2.046976155762178
 10
3.873159929652116
 20
2.177026155762178
 10
3.410159929652117
 20
2.152716155762178
 10
3.311849929652117
 20
2.138456155762178
 10
3.280109929652117
 20
2.126726155762178
 10
3.263839929652117
 20
2.110836155762178
 10
3.255159929652117
 20
2.086426155762178
 10
3.246359929652117
 20
2.049096155762178
 10
3.259389929652117
 20
2.041776155762178
 10
3.288849929652117
 20
2.036826155762178
 10
3.320159929652116
 20
2.034116155762178
 10
3.338819929652117
 20
2.033256155762178
 10
3.578729929652116
 20
2.034006155762178
 10
3.818199929652117
 20
2.046976155762178
  0
LWPOLYLINE
  5
52
330
3B2
100
AcDbEntity
  8
0
100
AcDbPolyline
 90
       13
 70
     0
 43
0.0
 10
3.924979929652118
 20
2.179686155762178
 10
3.872069929652117
 20
2.054896155762178
 10
4.056099929652117
 20
2.079586155762178
 10
4.237309929652117
 20
2.114146155762178
 10
4.257169929652116
 20
2.123746155762178
 10
4.264229929652117
 20
2.136116155762178
 10
4.264169929652116
 20
2.154186155762178
 10
4.262639929652117
 20
2.180716155762178
 10
4.243659929652116
 20
2.186846155762177
 10
4.211269929652117
 20
2.189996155762178
 10
4.178229929652117
 20
2.191136155762178
 10
4.157499929652117
 20
2.191296155762178
 10
3.924979929652118
 20
2.179686155762178
  0
LWPOLYLINE
  5
53
330
3B2
100
AcDbEntity
  8
0
100
AcDbPolyline
 90
       18
 70
     0
 43
0.0
 10
4.270069929652117
 20
2.190746155762178
 10
4.292209929652117
 20
2.196456155762178
 10
4.317109929652117
 20
2.217176155762178
 10
4.332249929652116
 20
2.239256155762178
 10
4.334959929652117
 20
2.259106155762177
 10
4.330089929652116
 20
2.279936155762178
 10
4.322429929652117
 20
2.304896155762178
 10
4.316739929652117
 20
2.327466155762178
 10
4.313049929652117
 20
2.341356155762178
 10
4.306529929652116
 20
2.355076155762178
 10
4.292269929652116
 20
2.377276155762178
 10
4.265519929652116
 20
2.399246155762178
 10
4.229389929652116
 20
2.403746155762178
 10
4.209359929652116
 20
2.395886155762178
 10
4.202909929652117
 20
2.377276155762178
 10
4.243659929652116
 20
2.217176155762178
 10
4.252659929652117
 20
2.198616155762178
 10
4.270069929652117
 20
2.190746155762178
  0
LWPOLYLINE
  5
54
330
3B2
100
AcDbEntity
  8
0
100
AcDbPolyline
 90
       12
 70
     0
 43
0.0
 10
4.272739929652117
 20
2.190746155762178
 10
4.295139929652116
 20
2.198026155762178
 10
4.317599929652117
 20
2.217176155762178
 10
4.328779929652116
 20
2.232466155762178
 10
4.342839929652117
 20
2.204636155762178
 10
4.351069929652116
 20
2.173606155762178
 10
4.349989929652116
 20
2.148106155762178
 10
4.336159929652117
 20
2.136886155762178
 10
4.307459929652117
 20
2.136716155762178
 10
4.289069929652117
 20
2.140506155762178
 10
4.273769929652117
 20
2.159286155762178
 10
4.272739929652117
 20
2.190746155762178
  0
LWPOLYLINE
  5
55
330
3B2
100
AcDbEntity
  8
0
100
AcDbPolyline
 90
       13
 70
     0
 43
0.0
 10
3.299699929652117
 20
2.164326155762178
 10
3.332479929652117
 20
2.164326155762178
 10
3.361169929652116
 20
2.166826155762178
 10
3.373209929652117
 20
2.172686155762178
 10
3.373209929652117
 20
2.203006155762178
 10
3.361339929652117
 20
2.208926155762178
 10
3.332479929652117
 20
2.211366155762178
 10
3.299699929652117
 20
2.211366155762178
 10
3.270779929652117
 20
2.208976155762178
 10
3.258999929652117
 20
2.203006155762178
 10
3.258999929652117
 20
2.172686155762178
 10
3.270779929652117
 20
2.166776155762178
 10
3.299699929652117
 20
2.164326155762178
  0
LWPOLYLINE
  5
56
330
3B2
100
AcDbEntity
  8
0
100
AcDbPolyline
 90
       13
 70
     0
 43
0.0
 10
2.977859929652117
 20
2.164326155762178
 10
3.010639929652116
 20
2.164326155762178
 10
3.039279929652117
 20
2.166826155762178
 10
3.051319929652117
 20
2.172686155762178
 10
3.051319929652117
 20
2.203006155762178
 10
3.039499929652117
 20
2.208926155762178
 10
3.010639929652116
 20
2.211366155762178
 10
2.977859929652117
 20
2.211366155762178
 10
2.948949929652117
 20
2.208976155762178
 10
2.937179929652117
 20
2.203006155762178
 10
2.937179929652117
 20
2.172686155762178
 10
2.948949929652117
 20
2.166776155762178
 10
2.977859929652117
 20
2.164326155762178
  0
LWPOLYLINE
  5
57
330
3B2
100
AcDbEntity
  8
0
100
AcDbPolyline
 90
       21
 70
     0
 43
0.0
 10
5.015849929652116
 20
2.003686155762177
 10
5.012529929652118
 20
2.048066155762178
 10
5.018779929652117
 20
2.086036155762178
 10
5.033959929652116
 20
2.116046155762178
 10
5.057299929652117
 20
2.136286155762178
 10
5.087999929652117
 20
2.145066155762178
 10
5.125489929652117
 20
2.140786155762178
 10
5.168949929652117
 20
2.121686155762178
 10
5.217729929652117
 20
2.086096155762178
 10
5.256629929652117
 20
2.043936155762178
 10
5.299529929652117
 20
1.973956155762178
 10
5.333989929652116
 20
1.874026155762178
 10
5.347709929652117
 20
1.742026155762177
 10
5.305339929652117
 20
1.756776155762178
 10
5.255979929652117
 20
1.779726155762178
 10
5.203299929652117
 20
1.809356155762178
 10
5.150819929652117
 20
1.844116155762178
 10
5.102209929652117
 20
1.882476155762178
 10
5.061139929652116
 20
1.922896155762178
 10
5.031089929652117
 20
1.963816155762178
 10
5.015849929652116
 20
2.003686155762177
  0
LWPOLYLINE
  5
58
330
3B2
100
AcDbEntity
  8
0
100
AcDbPolyline
 90
        5
 70
     1
 43
0.0
 10
2.780769929652116
 20
1.266386155762178
 10
3.182889929652116
 20
1.266386155762178
 10
3.182889929652116
 20
1.252646155762178
 10
2.780769929652116
 20
1.252646155762178
 10
2.780769929652116
 20
1.266386155762178
  0
LWPOLYLINE
  5
59
330
3B2
100
AcDbEntity
  8
0
100
AcDbPolyline
 90
       17
 70
     0
 43
0.0
 10
5.316799929652117
 20
0.806576155762178
 10
5.338379929652117
 20
0.8165061557621778
 10
5.353569929652117
 20
0.835116155762178
 10
5.364319929652117
 20
0.857206155762178
 10
5.371049929652116
 20
0.8943161557621777
 10
5.394419929652116
 20
1.057606155762178
 10
5.402559929652117
 20
1.257366155762178
 10
5.393179929652117
 20
1.457136155762178
 10
5.371269929652117
 20
1.619956155762178
 10
5.364529929652116
 20
1.656726155762178
 10
5.353799929652117
 20
1.679136155762178
 10
5.338599929652117
 20
1.697746155762178
 10
5.316949929652116
 20
1.707136155762178
 10
5.352919929652117
 20
1.485286155762178
 10
5.365839929652116
 20
1.263716155762178
 10
5.352109929652118
 20
1.028646155762178
 10
5.316799929652117
 20
0.806576155762178
  0
LWPOLYLINE
  5
5A
330
3B2
100
AcDbEntity
  8
0
100
AcDbPolyline
 90
        9
 70
     0
 43
0.0
 10
5.400559929652117
 20
1.256886155762178
 10
5.395019929652117
 20
1.212456155762178
 10
5.381779929652117
 20
1.194006155762178
 10
5.368489929652117
 20
1.212456155762178
 10
5.363069929652116
 20
1.256886155762178
 10
5.368489929652117
 20
1.301316155762178
 10
5.381779929652117
 20
1.319776155762177
 10
5.395019929652117
 20
1.301316155762178
 10
5.400559929652117
 20
1.256886155762178
  0
LWPOLYLINE
  5
5B
330
3B2
100
AcDbEntity
  8
0
100
AcDbPolyline
 90
        4
 70
     0
 43
0.0
 10
0.4516099296521165
 20
0.4907161557621778
 10
2.947699929652117
 20
0.4851861557621779
 10
2.947699929652117
 20
0.485396155762178
 10
0.4516099296521165
 20
0.4909961557621778
  0
LWPOLYLINE
  5
5C
330
3B2
100
AcDbEntity
  8
0
100
AcDbPolyline
 90
       11
 70
     0
 43
0.0
 10
2.947699929652117
 20
0.4851861557621779
 10
3.000709929652117
 20
0.484046155762178
 10
3.039499929652117
 20
0.4802961557621779
 10
3.063269929652117
 20
0.4736861557621777
 10
3.071299929652117
 20
0.4637561557621779
 10
3.071499929652117
 20
0.4637561557621779
 10
3.063319929652117
 20
0.4738461557621778
 10
3.039499929652117
 20
0.4805761557621779
 10
3.000709929652117
 20
0.4842561557621781
 10
2.947699929652117
 20
0.485396155762178
 10
2.947699929652117
 20
0.4851861557621779
  0
LWPOLYLINE
  5
5D
330
3B2
100
AcDbEntity
  8
0
100
AcDbPolyline
 90
        5
 70
     1
 43
0.0
 10
3.071299929652117
 20
0.4637561557621779
 10
3.071499929652117
 20
0.4637561557621779
 10
3.071499929652117
 20
0.413616155762178
 10
3.071299929652117
 20
0.413616155762178
 10
3.071299929652117
 20
0.4637561557621779
  0
LWPOLYLINE
  5
5E
330
3B2
100
AcDbEntity
  8
0
100
AcDbPolyline
 90
        7
 70
     0
 43
0.0
 10
3.071299929652117
 20
0.413616155762178
 10
3.062019929652116
 20
0.3958861557621778
 10
3.025389929652117
 20
0.3809061557621778
 10
3.025449929652117
 20
0.3806861557621777
 10
3.062129929652117
 20
0.395716155762178
 10
3.071499929652117
 20
0.413616155762178
 10
3.071299929652117
 20
0.413616155762178
  0
LWPOLYLINE
  5
5F
330
3B2
100
AcDbEntity
  8
0
100
AcDbPolyline
 90
        4
 70
     0
 43
0.0
 10
3.025389929652117
 20
0.3809061557621778
 10
2.870019929652117
 20
0.3487261557621779
 10
2.870069929652117
 20
0.3485261557621779
 10
3.025449929652117
 20
0.3806861557621777
  0
LWPOLYLINE
  5
60
330
3B2
100
AcDbEntity
  8
0
100
AcDbPolyline
 90
       13
 70
     0
 43
0.0
 10
2.870019929652117
 20
0.3487261557621779
 10
2.826669929652117
 20
0.3404361557621778
 10
2.785269929652117
 20
0.335176155762178
 10
2.731279929652117
 20
0.3325061557621778
 10
2.650279929652116
 20
0.3317061557621779
 10
2.636449929652117
 20
0.3317061557621779
 10
2.636449929652117
 20
0.3314761557621777
 10
2.650279929652116
 20
0.3314761557621777
 10
2.731279929652117
 20
0.3322961557621777
 10
2.785269929652117
 20
0.3349561557621779
 10
2.826729929652116
 20
0.3402161557621777
 10
2.870069929652117
 20
0.3485261557621779
 10
2.870019929652117
 20
0.3487261557621779
  0
LWPOLYLINE
  5
61
330
3B2
100
AcDbEntity
  8
0
100
AcDbPolyline
 90
        4
 70
     0
 43
0.0
 10
2.636449929652117
 20
0.3317061557621779
 10
0.4378399296521165
 20
0.3359361557621781
 10
0.4378399296521165
 20
0.3357761557621779
 10
2.636449929652117
 20
0.3314761557621777
  0
LWPOLYLINE
  5
62
330
3B2
100
AcDbEntity
  8
0
100
AcDbPolyline
 90
        4
 70
     0
 43
0.0
 10
1.829319929652117
 20
0.5190361557621777
 10
1.835129929652117
 20
0.2928561557621778
 10
1.835349929652117
 20
0.2928561557621778
 10
1.829539929652117
 20
0.5190361557621777
  0
LWPOLYLINE
  5
63
330
3B2
100
AcDbEntity
  8
0
100
AcDbPolyline
 90
        7
 70
     0
 43
0.0
 10
5.255379929652117
 20
0.7744661557621777
 10
4.990999929652117
 20
0.7195661557621778
 10
4.748489929652116
 20
0.6491861557621781
 10
4.748589929652116
 20
0.648976155762178
 10
4.991099929652117
 20
0.7193461557621781
 10
5.255429929652117
 20
0.7741861557621781
 10
5.255379929652117
 20
0.7744661557621777
  0
LWPOLYLINE
  5
64
330
3B2
100
AcDbEntity
  8
0
100
AcDbPolyline
 90
       13
 70
     0
 43
0.0
 10
5.017199929652117
 20
0.503296155762178
 10
4.910549929652117
 20
0.4852861557621777
 10
4.803659929652117
 20
0.4709061557621781
 10
4.705139929652116
 20
0.4614261557621777
 10
4.623549929652118
 20
0.4579561557621781
 10
4.568529929652117
 20
0.461536155762178
 10
4.568479929652117
 20
0.4613661557621778
 10
4.623549929652118
 20
0.4577261557621779
 10
4.705139929652116
 20
0.461206155762178
 10
4.803659929652117
 20
0.4707061557621777
 10
4.910549929652117
 20
0.4850761557621777
 10
5.017199929652117
 20
0.503086155762178
 10
5.017199929652117
 20
0.503296155762178
  0
LWPOLYLINE
  5
65
330
3B2
100
AcDbEntity
  8
0
100
AcDbPolyline
 90
        5
 70
     1
 43
0.0
 10
0.1408499296521173
 20
1.259596155762178
 10
0.4071699296521167
 20
1.259596155762178
 10
0.4071699296521167
 20
1.259436155762178
 10
0.1408499296521173
 20
1.259436155762178
 10
0.1408499296521173
 20
1.259596155762178
  0
LWPOLYLINE
  5
66
330
3B2
100
AcDbEntity
  8
0
100
AcDbPolyline
 90
        5
 70
     1
 43
0.0
 10
3.181749929652117
 20
0.5428561557621778
 10
3.181979929652117
 20
0.5428561557621778
 10
3.181979929652117
 20
0.2933961557621778
 10
3.181749929652117
 20
0.2933961557621778
 10
3.181749929652117
 20
0.5428561557621778
  0
LWPOLYLINE
  5
67
330
3B2
100
AcDbEntity
  8
0
100
AcDbPolyline
 90
        5
 70
     1
 43
0.0
 10
3.128359929652117
 20
1.298066155762178
 10
3.128639929652117
 20
1.298066155762178
 10
3.128639929652117
 20
0.2933961557621778
 10
3.128359929652117
 20
0.2933961557621778
 10
3.128359929652117
 20
1.298066155762178
  0
LWPOLYLINE
  5
68
330
3B2
100
AcDbEntity
  8
0
100
AcDbPolyline
 90
        7
 70
     0
 43
0.0
 10
0.4504799296521167
 20
2.030106155762178
 10
0.4088099296521168
 20
1.260186155762178
 10
0.4504799296521167
 20
0.4894061557621781
 10
0.4506299296521172
 20
0.489466155762178
 10
0.4090199296521169
 20
1.260186155762178
 10
0.4506299296521172
 20
2.030046155762178
 10
0.4504799296521167
 20
2.030106155762178
  0
LWPOLYLINE
  5
69
330
3B2
100
AcDbEntity
  8
0
100
AcDbPolyline
 90
        5
 70
     1
 43
0.0
 10
0.4425999296521166
 20
0.5181161557621778
 10
3.180839929652117
 20
0.5181161557621778
 10
3.180839929652117
 20
0.5178961557621777
 10
0.4425999296521166
 20
0.5178961557621777
 10
0.4425999296521166
 20
0.5181161557621778
  0
LWPOLYLINE
  5
6A
330
3B2
100
AcDbEntity
  8
0
100
AcDbPolyline
 90
        5
 70
     1
 43
0.0
 10
0.4425999296521166
 20
0.5434561557621778
 10
3.180839929652117
 20
0.5434561557621778
 10
3.180839929652117
 20
0.543226155762178
 10
0.4425999296521166
 20
0.543226155762178
 10
0.4425999296521166
 20
0.5434561557621778
  0
LWPOLYLINE
  5
6B
330
3B2
100
AcDbEntity
  8
0
100
AcDbPolyline
 90
        4
 70
     0
 43
0.0
 10
4.405279929652117
 20
0.4250261557621777
 10
4.390999929652116
 20
0.2897061557621781
 10
4.391229929652116
 20
0.2896561557621777
 10
4.405429929652117
 20
0.4249661557621778
  0
LWPOLYLINE
  5
6C
330
3B2
100
AcDbEntity
  8
0
100
AcDbPolyline
 90
        4
 70
     0
 43
0.0
 10
0.4516099296521165
 20
2.027006155762177
 10
2.947699929652117
 20
2.032546155762178
 10
2.947699929652117
 20
2.032756155762178
 10
0.4516099296521165
 20
2.027226155762178
  0
LWPOLYLINE
  5
6D
330
3B2
100
AcDbEntity
  8
0
100
AcDbPolyline
 90
       11
 70
     0
 43
0.0
 10
2.947699929652117
 20
2.032546155762178
 10
3.000709929652117
 20
2.033746155762178
 10
3.039499929652117
 20
2.037426155762178
 10
3.063319929652117
 20
2.044156155762177
 10
3.071499929652117
 20
2.054136155762178
 10
3.071299929652117
 20
2.054136155762178
 10
3.063269929652117
 20
2.044316155762178
 10
3.039499929652117
 20
2.037646155762178
 10
3.000709929652117
 20
2.033956155762178
 10
2.947699929652117
 20
2.032756155762178
 10
2.947699929652117
 20
2.032546155762178
  0
LWPOLYLINE
  5
6E
330
3B2
100
AcDbEntity
  8
0
100
AcDbPolyline
 90
        5
 70
     1
 43
0.0
 10
3.071299929652117
 20
2.104386155762178
 10
3.071499929652117
 20
2.104386155762178
 10
3.071499929652117
 20
2.054136155762178
 10
3.071299929652117
 20
2.054136155762178
 10
3.071299929652117
 20
2.104386155762178
  0
LWPOLYLINE
  5
6F
330
3B2
100
AcDbEntity
  8
0
100
AcDbPolyline
 90
        7
 70
     0
 43
0.0
 10
3.071499929652117
 20
2.104386155762178
 10
3.062129929652117
 20
2.122286155762178
 10
3.025449929652117
 20
2.137256155762178
 10
3.025389929652117
 20
2.137036155762178
 10
3.062019929652116
 20
2.122116155762177
 10
3.071299929652117
 20
2.104386155762178
 10
3.071499929652117
 20
2.104386155762178
  0
LWPOLYLINE
  5
70
330
3B2
100
AcDbEntity
  8
0
100
AcDbPolyline
 90
        4
 70
     0
 43
0.0
 10
3.025449929652117
 20
2.137256155762178
 10
2.870069929652117
 20
2.169426155762178
 10
2.870019929652117
 20
2.169216155762178
 10
3.025389929652117
 20
2.137036155762178
  0
LWPOLYLINE
  5
71
330
3B2
100
AcDbEntity
  8
0
100
AcDbPolyline
 90
       13
 70
     0
 43
0.0
 10
2.870069929652117
 20
2.169426155762178
 10
2.826819929652117
 20
2.177786155762178
 10
2.785549929652117
 20
2.182996155762178
 10
2.731819929652117
 20
2.185706155762178
 10
2.651479929652117
 20
2.186466155762178
 10
2.636449929652117
 20
2.186466155762178
 10
2.636449929652117
 20
2.186246155762178
 10
2.651479929652117
 20
2.186246155762178
 10
2.731819929652117
 20
2.185496155762178
 10
2.785549929652117
 20
2.182776155762178
 10
2.826769929652117
 20
2.177566155762178
 10
2.870019929652117
 20
2.169216155762178
 10
2.870069929652117
 20
2.169426155762178
  0
LWPOLYLINE
  5
72
330
3B2
100
AcDbEntity
  8
0
100
AcDbPolyline
 90
        4
 70
     0
 43
0.0
 10
2.636449929652117
 20
2.186466155762178
 10
0.4378399296521165
 20
2.182226155762178
 10
0.4378399296521165
 20
2.182026155762178
 10
2.636449929652117
 20
2.186246155762178
  0
LWPOLYLINE
  5
73
330
3B2
100
AcDbEntity
  8
0
100
AcDbPolyline
 90
        4
 70
     0
 43
0.0
 10
1.830089929652117
 20
1.999456155762178
 10
1.835889929652117
 20
2.225096155762178
 10
1.835669929652117
 20
2.225096155762178
 10
1.829859929652117
 20
1.999456155762178
  0
LWPOLYLINE
  5
74
330
3B2
100
AcDbEntity
  8
0
100
AcDbPolyline
 90
        7
 70
     0
 43
0.0
 10
5.255429929652117
 20
1.743756155762178
 10
4.991099929652117
 20
1.798656155762178
 10
4.748589929652116
 20
1.868966155762178
 10
4.748489929652116
 20
1.868816155762178
 10
4.990999929652117
 20
1.798436155762178
 10
5.255379929652117
 20
1.743536155762178
 10
5.255429929652117
 20
1.743756155762178
  0
LWPOLYLINE
  5
75
330
3B2
100
AcDbEntity
  8
0
100
AcDbPolyline
 90
       13
 70
     0
 43
0.0
 10
5.017199929652117
 20
2.014856155762178
 10
4.910549929652117
 20
2.032926155762178
 10
4.803659929652117
 20
2.047296155762178
 10
4.705139929652116
 20
2.056796155762178
 10
4.623549929652118
 20
2.060216155762178
 10
4.568479929652117
 20
2.056576155762178
 10
4.568529929652117
 20
2.056426155762177
 10
4.623549929652118
 20
2.059996155762178
 10
4.705139929652116
 20
2.056576155762178
 10
4.803659929652117
 20
2.047086155762178
 10
4.910549929652117
 20
2.032716155762178
 10
5.017199929652117
 20
2.014646155762178
 10
5.017199929652117
 20
2.014856155762178
  0
LWPOLYLINE
  5
76
330
3B2
100
AcDbEntity
  8
0
100
AcDbPolyline
 90
        5
 70
     1
 43
0.0
 10
0.1408499296521173
 20
1.258506155762178
 10
0.4071699296521167
 20
1.258506155762178
 10
0.4071699296521167
 20
1.258356155762178
 10
0.1408499296521173
 20
1.258356155762178
 10
0.1408499296521173
 20
1.258506155762178
  0
LWPOLYLINE
  5
77
330
3B2
100
AcDbEntity
  8
0
100
AcDbPolyline
 90
        5
 70
     1
 43
0.0
 10
3.182299929652117
 20
2.224006155762178
 10
3.182519929652117
 20
2.224006155762178
 10
3.182519929652117
 20
1.974606155762178
 10
3.182299929652117
 20
1.974606155762178
 10
3.182299929652117
 20
2.224006155762178
  0
LWPOLYLINE
  5
78
330
3B2
100
AcDbEntity
  8
0
100
AcDbPolyline
 90
        5
 70
     1
 43
0.0
 10
3.128909929652117
 20
2.224006155762178
 10
3.129129929652117
 20
2.224006155762178
 10
3.129129929652117
 20
1.219346155762178
 10
3.128909929652117
 20
1.219346155762178
 10
3.128909929652117
 20
2.224006155762178
  0
LWPOLYLINE
  5
79
330
3B2
100
AcDbEntity
  8
0
100
AcDbPolyline
 90
        5
 70
     1
 43
0.0
 10
0.4425999296521166
 20
2.000046155762178
 10
3.180839929652117
 20
2.000046155762178
 10
3.180839929652117
 20
1.999826155762178
 10
0.4425999296521166
 20
1.999826155762178
 10
0.4425999296521166
 20
2.000046155762178
  0
LWPOLYLINE
  5
7A
330
3B2
100
AcDbEntity
  8
0
100
AcDbPolyline
 90
        5
 70
     1
 43
0.0
 10
0.4425999296521166
 20
1.974716155762178
 10
3.180839929652117
 20
1.974716155762178
 10
3.180839929652117
 20
1.974496155762178
 10
0.4425999296521166
 20
1.974496155762178
 10
0.4425999296521166
 20
1.974716155762178
  0
LWPOLYLINE
  5
7B
330
3B2
100
AcDbEntity
  8
0
100
AcDbPolyline
 90
        4
 70
     0
 43
0.0
 10
4.406029929652117
 20
2.092436155762178
 10
4.391709929652118
 20
2.227746155762178
 10
4.391539929652117
 20
2.227746155762178
 10
4.405819929652116
 20
2.092436155762178
  0
LWPOLYLINE
  5
7C
330
3B2
100
AcDbEntity
  8
0
100
AcDbPolyline
 90
        5
 70
     1
 43
0.0
 10
2.795959929652117
 20
1.974606155762178
 10
2.796169929652117
 20
1.974606155762178
 10
2.796169929652117
 20
0.5433461557621779
 10
2.795959929652117
 20
0.5433461557621779
 10
2.795959929652117
 20
1.974606155762178
  0
LWPOLYLINE
  5
7D
330
3B2
100
AcDbEntity
  8
0
100
AcDbPolyline
 90
        5
 70
     1
 43
0.0
 10
2.375279929652117
 20
1.974606155762178
 10
2.375489929652117
 20
1.974606155762178
 10
2.375489929652117
 20
0.5433461557621779
 10
2.375279929652117
 20
0.5433461557621779
 10
2.375279929652117
 20
1.974606155762178
  0
LWPOLYLINE
  5
7E
330
3B2
100
AcDbEntity
  8
0
100
AcDbPolyline
 90
        5
 70
     1
 43
0.0
 10
1.970429929652117
 20
1.974606155762178
 10
1.970659929652117
 20
1.974606155762178
 10
1.970659929652117
 20
0.5433461557621779
 10
1.970429929652117
 20
0.5433461557621779
 10
1.970429929652117
 20
1.974606155762178
  0
LWPOLYLINE
  5
7F
330
3B2
100
AcDbEntity
  8
0
100
AcDbPolyline
 90
        5
 70
     1
 43
0.0
 10
1.537059929652117
 20
1.974606155762178
 10
1.537279929652117
 20
1.974606155762178
 10
1.537279929652117
 20
0.5433461557621779
 10
1.537059929652117
 20
0.5433461557621779
 10
1.537059929652117
 20
1.974606155762178
  0
LWPOLYLINE
  5
80
330
3B2
100
AcDbEntity
  8
0
100
AcDbPolyline
 90
        5
 70
     1
 43
0.0
 10
1.103679929652117
 20
1.974606155762178
 10
1.103909929652117
 20
1.974606155762178
 10
1.103909929652117
 20
0.5433461557621779
 10
1.103679929652117
 20
0.5433461557621779
 10
1.103679929652117
 20
1.974606155762178
  0
LWPOLYLINE
  5
81
330
3B2
100
AcDbEntity
  8
0
100
AcDbPolyline
 90
        5
 70
     1
 43
0.0
 10
2.662769929652117
 20
1.974606155762178
 10
2.662979929652117
 20
1.974606155762178
 10
2.662979929652117
 20
0.5433461557621779
 10
2.662769929652117
 20
0.5433461557621779
 10
2.662769929652117
 20
1.974606155762178
  0
LWPOLYLINE
  5
82
330
3B2
100
AcDbEntity
  8
0
100
AcDbPolyline
 90
        5
 70
     1
 43
0.0
 10
2.242089929652117
 20
1.974606155762178
 10
2.242299929652117
 20
1.974606155762178
 10
2.242299929652117
 20
0.5433461557621779
 10
2.242089929652117
 20
0.5433461557621779
 10
2.242089929652117
 20
1.974606155762178
  0
LWPOLYLINE
  5
83
330
3B2
100
AcDbEntity
  8
0
100
AcDbPolyline
 90
        5
 70
     1
 43
0.0
 10
1.837239929652116
 20
1.974606155762178
 10
1.837459929652117
 20
1.974606155762178
 10
1.837459929652117
 20
0.5433461557621779
 10
1.837239929652116
 20
0.5433461557621779
 10
1.837239929652116
 20
1.974606155762178
  0
LWPOLYLINE
  5
84
330
3B2
100
AcDbEntity
  8
0
100
AcDbPolyline
 90
        5
 70
     1
 43
0.0
 10
1.404349929652117
 20
1.974606155762178
 10
1.404629929652117
 20
1.974606155762178
 10
1.404629929652117
 20
0.5433461557621779
 10
1.404349929652117
 20
0.5433461557621779
 10
1.404349929652117
 20
1.974606155762178
  0
LWPOLYLINE
  5
85
330
3B2
100
AcDbEntity
  8
0
100
AcDbPolyline
 90
        5
 70
     1
 43
0.0
 10
0.9710299296521168
 20
1.974606155762178
 10
0.9712499296521173
 20
1.974606155762178
 10
0.9712499296521173
 20
0.5433461557621779
 10
0.9710299296521168
 20
0.5433461557621779
 10
0.9710299296521168
 20
1.974606155762178
  0
LWPOLYLINE
  5
86
330
3B2
100
AcDbEntity
  8
0
100
AcDbPolyline
 90
        9
 70
     0
 43
0.0
 10
5.304139929652116
 20
0.7605761557621777
 10
5.350049929652117
 20
0.989406155762178
 10
5.367949929652116
 20
1.248146155762178
 10
5.367089929652117
 20
1.307066155762178
 10
5.366859929652117
 20
1.307066155762178
 10
5.367739929652117
 20
1.248146155762178
 10
5.349839929652116
 20
0.9894661557621776
 10
5.303929929652117
 20
0.7606361557621777
 10
5.304139929652116
 20
0.7605761557621777
  0
LWPOLYLINE
  5
87
330
3B2
100
AcDbEntity
  8
0
100
AcDbPolyline
 90
        9
 70
     0
 43
0.0
 10
5.303389929652116
 20
1.753086155762178
 10
5.349279929652116
 20
1.524356155762178
 10
5.367199929652116
 20
1.265726155762178
 10
5.366319929652116
 20
1.206706155762178
 10
5.366539929652117
 20
1.206706155762178
 10
5.367409929652117
 20
1.265726155762178
 10
5.349499929652117
 20
1.524356155762178
 10
5.303599929652117
 20
1.753146155762177
 10
5.303389929652116
 20
1.753086155762178
  0
ENDBLK
  5
3B4
330
3B2
100
AcDbEntity
  8
0
100
AcDbBlockEnd
  0
BLOCK
  5
3B6
330
3B5
100
AcDbEntity
  8
0
100
AcDbBlockBegin
  2
bed_double_180_200
 70
     0
 10
0.0
 20
0.0
 30
0.0
  3
bed_double_180_200
  1
bed_double_180_200
  0
LINE
  5
95
330
3B5
100
AcDbEntity
  8
0
100
AcDbLine
 10
1750.0
 20
2000.0
 30
0.0
 11
50.0
 21
2000.0
 31
0.0
  0
LINE
  5
96
330
3B5
100
AcDbEntity
  8
0
100
AcDbLine
 10
1800.0
 20
50.0
 30
0.0
 11
1800.0
 21
1950.0
 31
0.0
  0
LINE
  5
97
330
3B5
100
AcDbEntity
  8
0
100
AcDbLine
 10
50.0
 20
0.0
 30
0.0
 11
1750.0
 21
0.0
 31
0.0
  0
ARC
  5
98
330
3B5
100
AcDbEntity
  8
0
100
AcDbCircle
 10
1750.0
 20
50.0
 30
0.0
 40
50.0
100
AcDbArc
 50
270.0
 51
0.0
  0
ARC
  5
99
330
3B5
100
AcDbEntity
  8
0
100
AcDbCircle
 10
1750.0
 20
1450.0
 30
0.0
 40
50.0
100
AcDbArc
 50
0.0
 51
90.0
  0
ARC
  5
9A
330
3B5
100
AcDbEntity
  8
0
100
AcDbCircle
 10
1100.0
 20
1850.000000000001
 30
0.0
 40
50.0
100
AcDbArc
 50
90.0
 51
180.0
  0
LINE
  5
9B
330
3B5
100
AcDbEntity
  8
0
100
AcDbLine
 10
1050.0
 20
1650.000000000001
 30
0.0
 11
1050.0
 21
1850.0
 31
0.0
  0
ARC
  5
9C
330
3B5
100
AcDbEntity
  8
0
100
AcDbCircle
 10
1100.0
 20
1650.000000000001
 30
0.0
 40
50.0
100
AcDbArc
 50
180.0
 51
270.0
  0
ARC
  5
9D
330
3B5
100
AcDbEntity
  8
0
100
AcDbCircle
 10
1600.0
 20
1650.000000000001
 30
0.0
 40
50.0
100
AcDbArc
 50
270.0
 51
0.0
  0
LINE
  5
9E
330
3B5
100
AcDbEntity
  8
0
100
AcDbLine
 10
1650.0
 20
1850.0
 30
0.0
 11
1650.0
 21
1650.000000000001
 31
0.0
  0
ARC
  5
9F
330
3B5
100
AcDbEntity
  8
0
100
AcDbCircle
 10
1600.0
 20
1850.000000000001
 30
0.0
 40
50.0
100
AcDbArc
 50
0.0
 51
90.0
  0
LINE
  5
A0
330
3B5
100
AcDbEntity
  8
0
100
AcDbLine
 10
1600.0
 20
1600.0
 30
0.0
 11
1100.0
 21
1600.000000000001
 31
0.0
  0
LINE
  5
A1
330
3B5
100
AcDbEntity
  8
0
100
AcDbLine
 10
1100.0
 20
1900.000000000001
 30
0.0
 11
1600.0
 21
1900.0
 31
0.0
  0
ARC
  5
A2
330
3B5
100
AcDbEntity
  8
0
100
AcDbCircle
 10
1000.0
 20
1450.0
 30
0.0
 40
50.0
100
AcDbArc
 50
90.0
 51
165.0000000000003
  0
ARC
  5
A3
330
3B5
100
AcDbEntity
  8
0
100
AcDbCircle
 10
993.1635294889504
 20
1400.0
 30
0.0
 40
100.0
100
AcDbArc
 50
90.0
 51
125.0
  0
ARC
  5
A4
330
3B5
100
AcDbEntity
  8
0
100
AcDbCircle
 10
659.4918303783812
 20
565.5765410954647
 30
0.0
 40
50.0
100
AcDbArc
 50
255.0
 51
345.0
  0
LINE
  5
A5
330
3B5
100
AcDbEntity
  8
0
100
AcDbLine
 10
707.7881216928347
 20
552.6355888403386
 30
0.0
 11
951.7037086855464
 21
1462.940952255126
 31
0.0
  0
LINE
  5
A6
330
3B5
100
AcDbEntity
  8
0
100
AcDbLine
 10
646.5508781232552
 20
517.2802497810112
 30
0.0
 11
0.0
 21
690.5230354397705
 31
0.0
  0
LINE
  5
A7
330
3B5
100
AcDbEntity
  8
0
100
AcDbLine
 10
0.0
 20
826.6568688530209
 30
0.0
 11
935.8058858538457
 21
1481.915204428899
 31
0.0
  0
LINE
  5
A8
330
3B5
100
AcDbEntity
  8
0
100
AcDbLine
 10
598.2545868087994
 20
530.2212020361379
 30
0.0
 11
834.1962152888686
 21
1410.767347144297
 31
0.0
  0
LINE
  5
A9
330
3B5
100
AcDbEntity
  8
0
100
AcDbLine
 10
934.8387313579397
 20
1400.0
 30
0.0
 11
1800.0
 21
1400.0
 31
0.0
  0
LINE
  5
AA
330
3B5
100
AcDbEntity
  8
0
100
AcDbLine
 10
1000.0
 20
1500.0
 30
0.0
 11
1750.0
 21
1500.0
 31
0.0
  0
LINE
  5
AB
330
3B5
100
AcDbEntity
  8
0
100
AcDbLine
 10
501.6620041798926
 20
556.10310654639
 30
0.0
 11
706.7587799766886
 21
1321.534694288596
 31
0.0
  0
ARC
  5
AC
330
3B5
100
AcDbEntity
  8
0
100
AcDbCircle
 10
50.0
 20
1950.0
 30
0.0
 40
50.0
100
AcDbArc
 50
89.99999999999996
 51
180.0
  0
LINE
  5
AD
330
3B5
100
AcDbEntity
  8
0
100
AcDbLine
 10
0.0
 20
1950.0
 30
0.0
 11
0.0
 21
50.0000000000003
 31
0.0
  0
ARC
  5
AE
330
3B5
100
AcDbEntity
  8
0
100
AcDbCircle
 10
50.0
 20
50.0
 30
0.0
 40
50.0
100
AcDbArc
 50
180.0
 51
270.0
  0
ARC
  5
AF
330
3B5
100
AcDbEntity
  8
0
100
AcDbCircle
 10
200.0000000000001
 20
1850.0
 30
0.0
 40
50.0
100
AcDbArc
 50
90.0
 51
180.0
  0
LINE
  5
B0
330
3B5
100
AcDbEntity
  8
0
100
AcDbLine
 10
150.0000000000001
 20
1650.0
 30
0.0
 11
150.0000000000001
 21
1850.0
 31
0.0
  0
ARC
  5
B1
330
3B5
100
AcDbEntity
  8
0
100
AcDbCircle
 10
200.0000000000001
 20
1650.0
 30
0.0
 40
50.0
100
AcDbArc
 50
180.0
 51
270.0
  0
ARC
  5
B2
330
3B5
100
AcDbEntity
  8
0
100
AcDbCircle
 10
700.0000000000001
 20
1650.0
 30
0.0
 40
50.0
100
AcDbArc
 50
270.0
 51
0.0
  0
LINE
  5
B3
330
3B5
100
AcDbEntity
  8
0
100
AcDbLine
 10
750.0000000000001
 20
1850.0
 30
0.0
 11
750.0000000000001
 21
1650.0
 31
0.0
  0
ARC
  5
B4
330
3B5
100
AcDbEntity
  8
0
100
AcDbCircle
 10
700.0000000000001
 20
1850.0
 30
0.0
 40
50.0
100
AcDbArc
 50
0.0
 51
90.0
  0
LINE
  5
B5
330
3B5
100
AcDbEntity
  8
0
100
AcDbLine
 10
700.0000000000001
 20
1600.0
 30
0.0
 11
200.0000000000001
 21
1600.0
 31
0.0
  0
LINE
  5
B6
330
3B5
100
AcDbEntity
  8
0
100
AcDbLine
 10
200.0000000000001
 20
1900.0
 30
0.0
 11
700.0000000000001
 21
1900.0
 31
0.0
  0
ARC
  5
B7
330
3B5
100
AcDbEntity
  8
0
100
AcDbCircle
 10
1750.0
 20
1950.0
 30
0.0
 40
50.0
100
AcDbArc
 50
0.0
 51
90.0
  0
ENDBLK
  5
3B7
330
3B5
100
AcDbEntity
  8
0
100
AcDbBlockEnd
  0
BLOCK
  5
3B9
330
3B8
100
AcDbEntity
  8
0
100
AcDbBlockBegin
  2
dine6_80x180
 70
     0
 10
0.0
 20
0.0
 30
0.0
  3
dine6_80x180
  1
dine6_80x180
  0
LINE
  5
2C1
330
3B8
100
AcDbEntity
  8
elem
  6
Continuous
 62
     8
420
  8421504
100
AcDbLine
 10
-40.0
 20
90.0
 30
0.0
 11
40.0
 21
90.0
 31
0.0
  0
LINE
  5
2C2
330
3B8
100
AcDbEntity
  8
elem
  6
Continuous
 62
     8
420
  8421504
100
AcDbLine
 10
40.0
 20
90.0
 30
0.0
 11
40.0
 21
-90.0
 31
0.0
  0
LINE
  5
2C3
330
3B8
100
AcDbEntity
  8
elem
  6
Continuous
 62
     8
420
  8421504
100
AcDbLine
 10
40.0
 20
-90.0
 30
0.0
 11
-40.0
 21
-90.0
 31
0.0
  0
LINE
  5
2C4
330
3B8
100
AcDbEntity
  8
elem
  6
Continuous
 62
     8
420
  8421504
100
AcDbLine
 10
-40.0
 20
-90.0
 30
0.0
 11
-40.0
 21
90.0
 31
0.0
  0
LINE
  5
2C5
330
3B8
100
AcDbEntity
  8
elem
  6
Continuous
 62
     8
420
  8421504
100
AcDbLine
 10
-69.278321
 20
14.890991
 30
0.0
 11
-40.0
 21
16.192261
 31
0.0
  0
LINE
  5
2C6
330
3B8
100
AcDbEntity
  8
elem
  6
Continuous
 62
     8
420
  8421504
100
AcDbLine
 10
-40.0
 20
-24.618774
 30
0.0
 11
-69.278321
 21
-23.317505
 31
0.0
  0
LINE
  5
2C7
330
3B8
100
AcDbEntity
  8
elem
  6
Continuous
 62
     8
420
  8421504
100
AcDbLine
 10
-69.623413
 20
21.277344
 30
0.0
 11
-66.623413
 21
21.277344
 31
0.0
  0
LINE
  5
2C8
330
3B8
100
AcDbEntity
  8
elem
  6
Continuous
 62
     8
420
  8421504
100
AcDbLine
 10
-66.623413
 20
-29.703857
 30
0.0
 11
-69.623413
 21
-29.703857
 31
0.0
  0
LINE
  5
2C9
330
3B8
100
AcDbEntity
  8
elem
  6
Continuous
 62
     8
420
  8421504
100
AcDbLine
 10
-72.942322
 20
76.598389
 30
0.0
 11
-40.0
 21
75.761597
 31
0.0
  0
LINE
  5
2CA
330
3B8
100
AcDbEntity
  8
elem
  6
Continuous
 62
     8
420
  8421504
100
AcDbLine
 10
-40.0
 20
34.397827
 30
0.0
 11
-75.607605
 21
38.483032
 31
0.0
  0
LINE
  5
2CB
330
3B8
100
AcDbEntity
  8
elem
  6
Continuous
 62
     8
420
  8421504
100
AcDbLine
 10
-72.841065
 20
82.993286
 30
0.0
 11
-69.848389
 21
82.784058
 31
0.0
  0
LINE
  5
2CC
330
3B8
100
AcDbEntity
  8
elem
  6
Continuous
 62
     8
420
  8421504
100
AcDbLine
 10
-73.404663
 20
31.927002
 30
0.0
 11
-76.397339
 21
32.136353
 31
0.0
  0
LINE
  5
2CD
330
3B8
100
AcDbEntity
  8
elem
  6
Continuous
 62
     8
420
  8421504
100
AcDbLine
 10
-40.0
 20
-77.304077
 30
0.0
 11
-70.064698
 21
-78.59314
 31
0.0
  0
LINE
  5
2CE
330
3B8
100
AcDbEntity
  8
elem
  6
Continuous
 62
     8
420
  8421504
100
AcDbLine
 10
-66.863282
 20
-84.723755
 30
0.0
 11
-69.851868
 21
-84.985229
 31
0.0
  0
LINE
  5
2CF
330
3B8
100
AcDbEntity
  8
elem
  6
Continuous
 62
     8
420
  8421504
100
AcDbLine
 10
74.430908
 20
37.144409
 30
0.0
 11
40.0
 21
32.584106
 31
0.0
  0
LINE
  5
2D0
330
3B8
100
AcDbEntity
  8
elem
  6
Continuous
 62
     8
420
  8421504
100
AcDbLine
 10
40.0
 20
73.874023
 30
0.0
 11
71.10083
 21
75.20752
 31
0.0
  0
LINE
  5
2D1
330
3B8
100
AcDbEntity
  8
elem
  6
Continuous
 62
     8
420
  8421504
100
AcDbLine
 10
75.331299
 20
30.8125
 30
0.0
 11
72.342712
 21
30.551025
 31
0.0
  0
LINE
  5
2D2
330
3B8
100
AcDbEntity
  8
elem
  6
Continuous
 62
     8
420
  8421504
100
AcDbLine
 10
67.899414
 20
81.338135
 30
0.0
 11
70.888
 21
81.599609
 31
0.0
  0
LINE
  5
2D3
330
3B8
100
AcDbEntity
  8
elem
  6
Continuous
 62
     8
420
  8421504
100
AcDbLine
 10
68.796508
 20
-27.29895
 30
0.0
 11
40.0
 21
-27.572754
 31
0.0
  0
LINE
  5
2D4
330
3B8
100
AcDbEntity
  8
elem
  6
Continuous
 62
     8
420
  8421504
100
AcDbLine
 10
40.0
 20
13.28125
 30
0.0
 11
70.130005
 21
10.886231
 31
0.0
  0
LINE
  5
2D5
330
3B8
100
AcDbEntity
  8
elem
  6
Continuous
 62
     8
420
  8421504
100
AcDbLine
 10
68.918518
 20
-33.693481
 30
0.0
 11
65.920349
 21
-33.588745
 31
0.0
  0
LINE
  5
2D6
330
3B8
100
AcDbEntity
  8
elem
  6
Continuous
 62
     8
420
  8421504
100
AcDbLine
 10
67.699585
 20
17.361328
 30
0.0
 11
70.697754
 21
17.256714
 31
0.0
  0
LINE
  5
2D7
330
3B8
100
AcDbEntity
  8
elem
  6
Continuous
 62
     8
420
  8421504
100
AcDbLine
 10
58.498779
 20
-79.43335
 30
0.0
 11
40.0
 21
-78.640137
 31
0.0
  0
LINE
  5
2D8
330
3B8
100
AcDbEntity
  8
elem
  6
Continuous
 62
     8
420
  8421504
100
AcDbLine
 10
40.0
 20
-38.479126
 30
0.0
 11
61.828857
 21
-41.370239
 31
0.0
  0
LINE
  5
2D9
330
3B8
100
AcDbEntity
  8
elem
  6
Continuous
 62
     8
420
  8421504
100
AcDbLine
 10
58.285949
 20
-85.825439
 30
0.0
 11
55.297363
 21
-85.563965
 31
0.0
  0
LINE
  5
2DA
330
3B8
100
AcDbEntity
  8
elem
  6
Continuous
 62
     8
420
  8421504
100
AcDbLine
 10
59.740661
 20
-34.776855
 30
0.0
 11
62.729248
 21
-35.03833
 31
0.0
  0
ARC
  5
2DB
330
3B8
100
AcDbEntity
  8
elem
  6
Continuous
 62
     8
420
  8421504
100
AcDbCircle
 10
-27.666803
 20
53.505902
 30
0.0
 40
53.731359
100
AcDbArc
 50
146.679448
 51
203.321004
  0
ARC
  5
2DC
330
3B8
100
AcDbEntity
  8
elem
  6
Continuous
 62
     8
420
  8421504
100
AcDbCircle
 10
-24.949908
 20
53.268209
 30
0.0
 40
53.731359
100
AcDbArc
 50
146.679448
 51
203.321004
  0
ARC
  5
2DD
330
3B8
100
AcDbEntity
  8
elem
  6
Continuous
 62
     8
420
  8421504
100
AcDbCircle
 10
-22.043405
 20
-4.216458
 30
0.0
 40
53.73142
100
AcDbArc
 50
151.679552
 51
208.321184
  0
ARC
  5
2DE
330
3B8
100
AcDbEntity
  8
elem
  6
Continuous
 62
     8
420
  8421504
100
AcDbCircle
 10
-19.323452
 20
-4.213197
 30
0.0
 40
53.731313
100
AcDbArc
 50
151.679217
 51
208.32083
  0
ARC
  5
2DF
330
3B8
100
AcDbEntity
  8
elem
  6
Continuous
 62
     8
420
  8421504
100
AcDbCircle
 10
-27.386391
 20
-51.882412
 30
0.0
 40
53.73142
100
AcDbArc
 50
161.679552
 51
218.321184
  0
ARC
  5
2E0
330
3B8
100
AcDbEntity
  8
elem
  6
Continuous
 62
     8
420
  8421504
100
AcDbCircle
 10
-24.708327
 20
-51.406886
 30
0.0
 40
53.731313
100
AcDbArc
 50
161.679217
 51
218.32083
  0
ARC
  5
2E1
330
3B8
100
AcDbEntity
  8
elem
  6
Continuous
 62
     8
420
  8421504
100
AcDbCircle
 10
22.536739
 20
-6.56795
 30
0.0
 40
53.731405
100
AcDbArc
 50
329.6795540000001
 51
26.321077
  0
ARC
  5
2E2
330
3B8
100
AcDbEntity
  8
elem
  6
Continuous
 62
     8
420
  8421504
100
AcDbCircle
 10
19.794427
 20
-6.465569
 30
0.0
 40
53.731358
100
AcDbArc
 50
329.6787330000001
 51
26.320433
  0
ARC
  5
2E3
330
3B8
100
AcDbEntity
  8
elem
  6
Continuous
 62
     8
420
  8421504
100
AcDbCircle
 10
13.387375
 20
-56.309648
 30
0.0
 40
53.731405
100
AcDbArc
 50
326.679554
 51
23.321077
  0
ARC
  5
2E4
330
3B8
100
AcDbEntity
  8
elem
  6
Continuous
 62
     8
420
  8421504
100
AcDbCircle
 10
10.65418
 20
-56.063886
 30
0.0
 40
53.731358
100
AcDbArc
 50
326.678733
 51
23.320433
  0
ARC
  5
2E5
330
3B8
100
AcDbEntity
  8
elem
  6
Continuous
 62
     8
420
  8421504
100
AcDbCircle
 10
25.989472
 20
52.083325
 30
0.0
 40
53.731405
100
AcDbArc
 50
336.6795540000001
 51
33.321077
  0
ARC
  5
2E6
330
3B8
100
AcDbEntity
  8
elem
  6
Continuous
 62
     8
420
  8421504
100
AcDbCircle
 10
23.255124
 20
51.850738
 30
0.0
 40
53.731358
100
AcDbArc
 50
336.678733
 51
33.320433
  0
LINE
  5
2E7
330
3B8
100
AcDbEntity
  8
elem
  6
Continuous
 62
     8
420
  8421504
100
AcDbLine
 10
-75.716081
 20
-34.517156
 30
0.0
 11
-78.394346
 21
-34.992947
 31
0.0
  0
LINE
  5
2E8
330
3B8
100
AcDbEntity
  8
elem
  6
Continuous
 62
     8
420
  8421504
100
AcDbLine
 10
-77.435
 20
-41.065128
 30
0.0
 11
-40.0
 21
-36.107056
 31
0.0
  0
ENDBLK
  5
3BA
330
3B8
100
AcDbEntity
  8
0
100
AcDbBlockEnd
  0
BLOCK
  5
3BC
330
3BB
100
AcDbEntity
  8
0
100
AcDbBlockBegin
  2
shower
 70
     0
 10
0.0
 20
0.0
 30
0.0
  3
shower
  1
shower
  0
CIRCLE
  5
209
330
3BB
100
AcDbEntity
  8
0
100
AcDbCircle
 10
250.0
 20
600.0000000000006
 30
0.0
 40
16.0
  0
LINE
  5
20A
330
3BB
100
AcDbEntity
  8
0
100
AcDbLine
 10
250.0
 20
99.9999999999996
 30
0.0
 11
250.0
 21
499.9999999999991
 31
0.0
  0
LINE
  5
20B
330
3BB
100
AcDbEntity
  8
0
100
AcDbLine
 10
149.9999999999999
 20
599.9999999999997
 30
0.0
 11
-250.0
 21
599.9999999999997
 31
0.0
  0
LINE
  5
20C
330
3BB
100
AcDbEntity
  8
0
100
AcDbLine
 10
149.9999999999999
 20
499.9999999999991
 30
0.0
 11
-250.0
 21
99.9999999999996
 31
0.0
  0
LINE
  5
20D
330
3BB
100
AcDbEntity
  8
0
100
AcDbLine
 10
10.0000000000002
 20
131.7157287525372
 30
0.0
 11
9.999999999999801
 21
30.0000000000002
 31
0.0
  0
LINE
  5
20E
330
3BB
100
AcDbEntity
  8
0
100
AcDbLine
 10
-9.9999999999993
 20
131.7157287525372
 30
0.0
 11
-9.999999999999801
 21
30.0000000000002
 31
0.0
  0
ARC
  5
20F
330
3BB
100
AcDbEntity
  8
0
100
AcDbCircle
 10
0.0000000000004
 20
159.9999999999993
 30
0.0
 40
29.9999999999998
100
AcDbArc
 50
289.4712206344902
 51
250.5287793655098
  0
LINE
  5
210
330
3BB
100
AcDbEntity
  8
0
100
AcDbLine
 10
-350.0000000000001
 20
0.0
 30
0.0
 11
350.0000000000001
 21
0.0
 31
0.0
  0
LINE
  5
211
330
3BB
100
AcDbEntity
  8
0
100
AcDbLine
 10
350.0000000000001
 20
0.0
 30
0.0
 11
350.0000000000001
 21
699.9999999999993
 31
0.0
  0
LINE
  5
212
330
3BB
100
AcDbEntity
  8
0
100
AcDbLine
 10
350.0000000000001
 20
699.9999999999993
 30
0.0
 11
-350.0000000000001
 21
699.9999999999993
 31
0.0
  0
LINE
  5
213
330
3BB
100
AcDbEntity
  8
0
100
AcDbLine
 10
-350.0000000000001
 20
699.9999999999993
 30
0.0
 11
-350.0000000000001
 21
0.0
 31
0.0
  0
LINE
  5
214
330
3BB
100
AcDbEntity
  8
0
100
AcDbLine
 10
320.0000000000003
 20
30.0000000000002
 30
0.0
 11
320.0000000000003
 21
669.9999999999991
 31
0.0
  0
LINE
  5
215
330
3BB
100
AcDbEntity
  8
0
100
AcDbLine
 10
320.0000000000003
 20
669.9999999999991
 30
0.0
 11
-320.0000000000003
 21
669.9999999999991
 31
0.0
  0
LINE
  5
216
330
3BB
100
AcDbEntity
  8
0
100
AcDbLine
 10
-320.0000000000003
 20
30.0000000000002
 30
0.0
 11
320.0000000000003
 21
30.0000000000002
 31
0.0
  0
LINE
  5
217
330
3BB
100
AcDbEntity
  8
0
100
AcDbLine
 10
-320.0000000000003
 20
669.9999999999991
 30
0.0
 11
-320.0000000000003
 21
30.0000000000002
 31
0.0
  0
CIRCLE
  5
218
330
3BB
100
AcDbEntity
  8
0
100
AcDbCircle
 10
250.0
 20
600.0000000000006
 30
0.0
 40
20.0
  0
ENDBLK
  5
3BD
330
3BB
100
AcDbEntity
  8
0
100
AcDbBlockEnd
  0
BLOCK
  5
3BF
330
3BE
100
AcDbEntity
  8
0
100
AcDbBlockBegin
  2
desk
 70
     0
 10
0.0
 20
0.0
 30
0.0
  3
desk
  1
desk
  0
INSERT
  5
FB
330
3BE
100
AcDbEntity
  8
0
100
AcDbBlockReference
  2
Workstation
 10
-5.000000000000001
 20
5.618787948970421
 30
0.0
 41
0.1
 42
0.1
  0
ENDBLK
  5
3C0
330
3BE
100
AcDbEntity
  8
0
100
AcDbBlockEnd
  0
BLOCK
  5
3C2
330
3C1
100
AcDbEntity
  8
0
100
AcDbBlockBegin
  2
door_70
 70
     0
 10
0.0
 20
0.0
 30
0.0
  3
door_70
  1
door_70
  0
LINE
  5
22
330
3C1
100
AcDbEntity
  8
0
100
AcDbLine
 10
40.0
 20
-20.0
 30
0.0
 11
40.0
 21
19.9999999999998
 31
0.0
  0
LINE
  5
23
330
3C1
100
AcDbEntity
  8
0
100
AcDbLine
 10
40.0
 20
19.9999999999998
 30
0.0
 11
70.0
 21
20.0000000000001
 31
0.0
  0
LINE
  5
24
330
3C1
100
AcDbEntity
  8
0
100
AcDbLine
 10
70.0
 20
20.0000000000001
 30
0.0
 11
70.0
 21
-20.0000000000001
 31
0.0
  0
LINE
  5
25
330
3C1
100
AcDbEntity
  8
0
100
AcDbLine
 10
70.0
 20
-20.0000000000001
 30
0.0
 11
40.0
 21
-20.0
 31
0.0
  0
LINE
  5
26
330
3C1
100
AcDbEntity
  8
0
100
AcDbLine
 10
659.9999999999998
 20
49.9999999999999
 30
0.0
 11
40.0
 21
49.9999999999999
 31
0.0
  0
LINE
  5
27
330
3C1
100
AcDbEntity
  8
0
100
AcDbLine
 10
40.0
 20
-50.0
 30
0.0
 11
659.9999999999998
 21
-50.0000000000002
 31
0.0
  0
LINE
  5
28
330
3C1
100
AcDbEntity
  8
0
100
AcDbLine
 10
40.0
 20
49.9999999999999
 30
0.0
 11
70.0
 21
49.9999999999999
 31
0.0
  0
LINE
  5
29
330
3C1
100
AcDbEntity
  8
0
100
AcDbLine
 10
70.0
 20
49.9999999999999
 30
0.0
 11
70.0
 21
640.0
 31
0.0
  0
LINE
  5
2A
330
3C1
100
AcDbEntity
  8
0
100
AcDbLine
 10
70.0
 20
640.0
 30
0.0
 11
40.0
 21
640.0
 31
0.0
  0
LINE
  5
2B
330
3C1
100
AcDbEntity
  8
0
100
AcDbLine
 10
40.0
 20
640.0
 30
0.0
 11
40.0
 21
49.9999999999999
 31
0.0
  0
ARC
  5
2C
330
3C1
100
AcDbEntity
  8
0
100
AcDbCircle
 10
71.5322268259504
 20
51.5322268259506
 30
0.0
 40
588.4697679434948
100
AcDbArc
 50
359.8508160752486
 51
90.14918392475174
  0
LINE
  5
2D
330
3C1
100
AcDbEntity
  8
0
100
AcDbLine
 10
659.9999999999998
 20
-50.0000000000002
 30
0.0
 11
659.9999999999998
 21
49.9999999999999
 31
0.0
  0
LINE
  5
2E
330
3C1
100
AcDbEntity
  8
0
100
AcDbLine
 10
659.9999999999998
 20
49.9999999999999
 30
0.0
 11
699.9999999999999
 21
49.9999999999998
 31
0.0
  0
LINE
  5
2F
330
3C1
100
AcDbEntity
  8
0
100
AcDbLine
 10
699.9999999999999
 20
49.9999999999998
 30
0.0
 11
699.9999999999999
 21
-50.0000000000002
 31
0.0
  0
LINE
  5
30
330
3C1
100
AcDbEntity
  8
0
100
AcDbLine
 10
699.9999999999999
 20
-50.0000000000002
 30
0.0
 11
659.9999999999998
 21
-50.0000000000002
 31
0.0
  0
LINE
  5
31
330
3C1
100
AcDbEntity
  8
0
100
AcDbLine
 10
659.9999999999998
 20
-20.0
 30
0.0
 11
659.9999999999998
 21
20.0000000000002
 31
0.0
  0
LINE
  5
32
330
3C1
100
AcDbEntity
  8
0
100
AcDbLine
 10
659.9999999999998
 20
20.0000000000002
 30
0.0
 11
629.9999999999998
 21
20.0000000000006
 31
0.0
  0
LINE
  5
33
330
3C1
100
AcDbEntity
  8
0
100
AcDbLine
 10
629.9999999999998
 20
20.0000000000006
 30
0.0
 11
629.9999999999998
 21
-19.9999999999991
 31
0.0
  0
LINE
  5
34
330
3C1
100
AcDbEntity
  8
0
100
AcDbLine
 10
629.9999999999998
 20
-19.9999999999991
 30
0.0
 11
659.9999999999998
 21
-20.0
 31
0.0
  0
LINE
  5
35
330
3C1
100
AcDbEntity
  8
0
100
AcDbLine
 10
40.0
 20
-50.0
 30
0.0
 11
40.0
 21
49.9999999999999
 31
0.0
  0
LINE
  5
36
330
3C1
100
AcDbEntity
  8
0
100
AcDbLine
 10
40.0
 20
49.9999999999999
 30
0.0
 11
0.0
 21
50.0000000000001
 31
0.0
  0
LINE
  5
37
330
3C1
100
AcDbEntity
  8
0
100
AcDbLine
 10
0.0
 20
50.0000000000001
 30
0.0
 11
0.0
 21
-50.0
 31
0.0
  0
LINE
  5
38
330
3C1
100
AcDbEntity
  8
0
100
AcDbLine
 10
0.0
 20
-50.0
 30
0.0
 11
40.0
 21
-50.0
 31
0.0
  0
ENDBLK
  5
3C3
330
3C1
100
AcDbEntity
  8
0
100
AcDbBlockEnd
  0
BLOCK
  5
3C5
330
3C4
100
AcDbEntity
  8
0
100
AcDbBlockBegin
  2
Workstation
 70
     0
 10
0.0
 20
0.0
 30
0.0
  3
Workstation
  1
Workstation
  0
LINE
  5
BB
330
3C4
100
AcDbEntity
  8
0
100
AcDbLine
 10
29.49790150175108
 20
-85.42892880951185
 30
0.0
 11
30.13773662916408
 21
-91.6939387086525
 31
0.0
  0
LINE
  5
BC
330
3C4
100
AcDbEntity
  8
0
100
AcDbLine
 10
30.13773662916408
 20
-91.6939387086525
 30
0.0
 11
31.27218260946863
 21
-96.65059552832619
 31
0.0
  0
LINE
  5
BD
330
3C4
100
AcDbEntity
  8
0
100
AcDbLine
 10
31.27218260946863
 20
-96.65059552832619
 30
0.0
 11
32.90123944266474
 21
-100.2988992685329
 31
0.0
  0
LINE
  5
BE
330
3C4
100
AcDbEntity
  8
0
100
AcDbLine
 10
32.90123944266474
 20
-100.2988992685329
 30
0.0
 11
35.02290958877267
 21
-102.646594850306
 31
0.0
  0
LINE
  5
BF
330
3C4
100
AcDbEntity
  8
0
100
AcDbLine
 10
35.02290958877267
 20
-102.646594850306
 30
0.0
 11
37.48138492937421
 21
-104.2977861142405
 31
0.0
  0
LINE
  5
C0
330
3C4
100
AcDbEntity
  8
0
100
AcDbLine
 10
37.48138492937421
 20
-104.2977861142405
 30
0.0
 11
40.17878600546304
 21
-105.6319741909668
 31
0.0
  0
LINE
  5
C1
330
3C4
100
AcDbEntity
  8
0
100
AcDbLine
 10
40.17878600546304
 20
-105.6319741909668
 30
0.0
 11
43.11511281703915
 21
-106.6491590804848
 31
0.0
  0
LINE
  5
C2
330
3C4
100
AcDbEntity
  8
0
100
AcDbLine
 10
43.11511281703915
 20
-106.6491590804848
 30
0.0
 11
46.29036536410255
 21
-107.3493407827946
 31
0.0
  0
LINE
  5
C3
330
3C4
100
AcDbEntity
  8
0
100
AcDbLine
 10
46.29036536410255
 20
-107.3493407827946
 30
0.0
 11
49.69144443957773
 21
-107.7313732657759
 31
0.0
  0
LINE
  5
C4
330
3C4
100
AcDbEntity
  8
0
100
AcDbLine
 10
49.69144443957773
 20
-107.7313732657759
 30
0.0
 11
53.0301674878037
 21
-107.7700438227824
 31
0.0
  0
LINE
  5
C5
330
3C4
100
AcDbEntity
  8
0
100
AcDbLine
 10
53.0301674878037
 20
-107.7700438227824
 30
0.0
 11
56.18864164510097
 21
-107.4550381647316
 31
0.0
  0
LINE
  5
C6
330
3C4
100
AcDbEntity
  8
0
100
AcDbLine
 10
56.18864164510097
 20
-107.4550381647316
 30
0.0
 11
59.16686691146953
 21
-106.7863562916234
 31
0.0
  0
LINE
  5
C7
330
3C4
100
AcDbEntity
  8
0
100
AcDbLine
 10
59.16686691146953
 20
-106.7863562916234
 30
0.0
 11
61.96484328690939
 21
-105.7639982034579
 31
0.0
  0
LINE
  5
C8
330
3C4
100
AcDbEntity
  8
0
100
AcDbLine
 10
61.96484328690939
 20
-105.7639982034579
 30
0.0
 11
64.57697005850214
 21
-104.3161967531191
 31
0.0
  0
LINE
  5
C9
330
3C4
100
AcDbEntity
  8
0
100
AcDbLine
 10
64.57697005850214
 20
-104.3161967531191
 30
0.0
 11
66.94475089132213
 21
-101.6933839596181
 31
0.0
  0
LINE
  5
CA
330
3C4
100
AcDbEntity
  8
0
100
AcDbLine
 10
66.94475089132213
 20
-101.6933839596181
 30
0.0
 11
69.0526282494849
 21
-97.6962066365217
 31
0.0
  0
LINE
  5
CB
330
3C4
100
AcDbEntity
  8
0
100
AcDbLine
 10
69.0526282494849
 20
-97.6962066365217
 30
0.0
 11
70.90060213299044
 21
-92.32466478382997
 31
0.0
  0
LINE
  5
CC
330
3C4
100
AcDbEntity
  8
0
100
AcDbLine
 10
70.90060213299044
 20
-92.32466478382997
 30
0.0
 11
72.48867254183875
 21
-85.57875840154288
 31
0.0
  0
LINE
  5
CD
330
3C4
100
AcDbEntity
  8
0
100
AcDbLine
 10
72.48867254183875
 20
-85.57875840154288
 30
0.0
 11
73.72711406552968
 21
-77.82022274644518
 31
0.0
  0
LINE
  5
CE
330
3C4
100
AcDbEntity
  8
0
100
AcDbLine
 10
73.72711406552968
 20
-77.82022274644518
 30
0.0
 11
74.07757424106214
 21
-71.2194693592453
 31
0.0
  0
LINE
  5
CF
330
3C4
100
AcDbEntity
  8
0
100
AcDbLine
 10
29.80425425265663
 20
-70.46113113060261
 30
0.0
 11
29.35267722722963
 21
-77.85556583090415
 31
0.0
  0
LINE
  5
D0
330
3C4
100
AcDbEntity
  8
0
100
AcDbLine
 10
29.89687684917113
 20
-70.00000000000003
 30
0.0
 11
29.80425425265663
 21
-70.46113113060261
 31
0.0
  0
LINE
  5
D1
330
3C4
100
AcDbEntity
  8
0
100
AcDbLine
 10
74.07757424106214
 20
-71.2194693592453
 30
0.0
 11
73.92703842467618
 21
-70.00000000000004
 31
0.0
  0
LINE
  5
D2
330
3C4
100
AcDbEntity
  8
0
100
AcDbLine
 10
82.03636700000001
 20
-60.15064399999999
 30
0.0
 11
82.03636700000003
 21
-59.65064399999997
 31
0.0
  0
LINE
  5
D3
330
3C4
100
AcDbEntity
  8
0
100
AcDbLine
 10
82.03636700000003
 20
-59.65064399999997
 30
0.0
 11
82.50319699999999
 21
-53.11502
 31
0.0
  0
ARC
  5
D4
330
3C4
100
AcDbEntity
  8
0
100
AcDbCircle
 10
83.00192699999998
 20
-53.15064400000004
 30
0.0
 40
0.5
100
AcDbArc
 50
90.0
 51
175.914383
  0
ARC
  5
D5
330
3C4
100
AcDbEntity
  8
0
100
AcDbCircle
 10
88.07080699999997
 20
-53.15064400000005
 30
0.0
 40
0.5
100
AcDbArc
 50
4.085616999999997
 51
90.0
  0
LINE
  5
D6
330
3C4
100
AcDbEntity
  8
0
100
AcDbLine
 10
83.00192699999998
 20
-52.65064400000004
 30
0.0
 11
88.07080699999999
 21
-52.650644
 31
0.0
  0
LINE
  5
D7
330
3C4
100
AcDbEntity
  8
0
100
AcDbLine
 10
88.56953699999997
 20
-53.11502000000005
 30
0.0
 11
89.03636700000001
 21
-59.65064400000001
 31
0.0
  0
LINE
  5
D8
330
3C4
100
AcDbEntity
  8
0
100
AcDbLine
 10
89.03636700000001
 20
-59.65064400000001
 30
0.0
 11
89.036367
 21
-60.15064399999999
 31
0.0
  0
ARC
  5
D9
330
3C4
100
AcDbEntity
  8
0
100
AcDbCircle
 10
85.53636699999996
 20
-60.15064400000006
 30
0.0
 40
3.5
100
AcDbArc
 50
180.0
 51
0.0
  0
LINE
  5
DA
330
3C4
100
AcDbEntity
  8
0
100
AcDbLine
 10
82.304224
 20
-55.900644
 30
0.0
 11
88.76851
 21
-55.90064399999997
 31
0.0
  0
LINE
  5
DB
330
3C4
100
AcDbEntity
  8
0
100
AcDbLine
 10
86.03636700000003
 20
-55.90064399999995
 30
0.0
 11
86.03636699999998
 21
-52.65064399999999
 31
0.0
  0
LINE
  5
DC
330
3C4
100
AcDbEntity
  8
0
100
AcDbLine
 10
100.0
 20
-0.0000000000000245
 30
0.0
 11
99.99999999999996
 21
-70.00000000000006
 31
0.0
  0
LINE
  5
DD
330
3C4
100
AcDbEntity
  8
0
100
AcDbLine
 10
99.99999999999996
 20
-70.00000000000006
 30
0.0
 11
-0.0000000000000129
 21
-70.00000000000001
 31
0.0
  0
LINE
  5
DE
330
3C4
100
AcDbEntity
  8
0
100
AcDbLine
 10
-0.0000000000000129
 20
-70.00000000000001
 30
0.0
 11
0.0
 21
0.0
 31
0.0
  0
LINE
  5
DF
330
3C4
100
AcDbEntity
  8
0
100
AcDbLine
 10
47.08744284512041
 20
-13.20415755437325
 30
0.0
 11
57.08135111531136
 21
-13.55315252139826
 31
0.0
  0
LINE
  5
E0
330
3C4
100
AcDbEntity
  8
0
100
AcDbLine
 10
32.88657428663807
 20
-18.71190956265281
 30
0.0
 11
70.8634257133637
 21
-20.03809043734785
 31
0.0
  0
LINE
  5
E1
330
3C4
100
AcDbEntity
  8
0
100
AcDbLine
 10
70.8634257133637
 20
-20.03809043734785
 30
0.0
 11
70.7587272232562
 21
-23.03626291840513
 31
0.0
  0
LINE
  5
E2
330
3C4
100
AcDbEntity
  8
0
100
AcDbLine
 10
70.7587272232562
 20
-23.03626291840513
 30
0.0
 11
32.78187579653056
 21
-21.71008204371008
 31
0.0
  0
LINE
  5
E3
330
3C4
100
AcDbEntity
  8
0
100
AcDbLine
 10
32.78187579653056
 20
-21.71008204371008
 30
0.0
 11
32.88657428663807
 21
-18.71190956265281
 31
0.0
  0
ARC
  5
E4
330
3C4
100
AcDbEntity
  8
0
100
AcDbCircle
 10
47.08377881725288
 20
-31.68838470190545
 30
0.0
 40
18.48422751068236
100
AcDbArc
 50
89.98864256923473
 51
135.561638568429
  0
ARC
  5
E5
330
3C4
100
AcDbEntity
  8
0
100
AcDbCircle
 10
55.79561171209387
 20
-31.99260861027682
 30
0.0
 40
18.48422751068236
100
AcDbArc
 50
40.43836143157093
 51
86.01135743076526
  0
LINE
  5
E6
330
3C4
100
AcDbEntity
  8
0
100
AcDbLine
 10
47.08744284512058
 20
-13.20415755437326
 30
0.0
 11
47.26194032863292
 21
-8.207203419277771
 31
0.0
  0
LINE
  5
E7
330
3C4
100
AcDbEntity
  8
0
100
AcDbLine
 10
57.25584859882387
 20
-8.556198386302782
 30
0.0
 11
57.08135111531107
 21
-13.55315252139825
 31
0.0
  0
LINE
  5
E8
330
3C4
100
AcDbEntity
  8
0
100
AcDbLine
 10
37.26803205844196
 20
-7.858208452252757
 30
0.0
 11
67.24975686901483
 21
-8.90519335332779
 31
0.0
  0
ARC
  5
E9
330
3C4
100
AcDbEntity
  8
0
100
AcDbCircle
 10
52.2588944637284
 20
-8.381700902790277
 30
0.0
 40
12.0
100
AcDbArc
 50
327.9936440803024
 51
343.5224878140701
  0
ARC
  5
EA
330
3C4
100
AcDbEntity
  8
0
100
AcDbCircle
 10
52.2588944637284
 20
-8.381700902790277
 30
0.0
 40
15.0
100
AcDbArc
 50
329.2531489562475
 51
358.0
  0
ARC
  5
EB
330
3C4
100
AcDbEntity
  8
0
100
AcDbCircle
 10
52.2588944637284
 20
-8.381700902790277
 30
0.0
 40
15.0
100
AcDbArc
 50
246.9605302186825
 51
289.0394697813174
  0
LINE
  5
EC
330
3C4
100
AcDbEntity
  8
0
100
AcDbLine
 10
57.15115010871619
 20
-11.55437086736006
 30
0.0
 11
65.30862434788928
 21
-11.8392361449011
 31
0.0
  0
ARC
  5
ED
330
3C4
100
AcDbEntity
  8
0
100
AcDbCircle
 10
52.2588944637284
 20
-8.381700902790277
 30
0.0
 40
13.5
100
AcDbArc
 50
329.2531489562475
 51
345.1604115930959
  0
ARC
  5
EE
330
3C4
100
AcDbEntity
  8
0
100
AcDbCircle
 10
52.2588944637284
 20
-8.381700902790277
 30
0.0
 40
12.0
100
AcDbArc
 50
192.4775121859299
 51
208.0063559196975
  0
ARC
  5
EF
330
3C4
100
AcDbEntity
  8
0
100
AcDbCircle
 10
52.2588944637284
 20
-8.381700902790277
 30
0.0
 40
15.0
100
AcDbArc
 50
178.0
 51
206.7468510437525
  0
LINE
  5
F0
330
3C4
100
AcDbEntity
  8
0
100
AcDbLine
 10
47.15724183852559
 20
-11.20537590033507
 30
0.0
 11
38.9997675993525
 21
-10.92051062279403
 31
0.0
  0
ARC
  5
F1
330
3C4
100
AcDbEntity
  8
0
100
AcDbCircle
 10
52.2588944637284
 20
-8.381700902790277
 30
0.0
 40
13.5
100
AcDbArc
 50
190.8395884069042
 51
206.7468510437525
  0
LINE
  5
F2
330
3C4
100
AcDbEntity
  8
0
100
AcDbLine
 10
0.0
 20
0.0
 30
0.0
 11
100.0
 21
-0.0000000000000245
 31
0.0
  0
LINE
  5
F3
330
3C4
100
AcDbEntity
  8
0
100
AcDbLine
 10
73.86537799999998
 20
-61.95782399999983
 30
0.0
 11
25.93116100000002
 21
-59.44569799999978
 31
0.0
  0
LINE
  5
F4
330
3C4
100
AcDbEntity
  8
0
100
AcDbLine
 10
25.93116100000002
 20
-59.44569799999978
 30
0.0
 11
26.62288066379759
 21
-46.24689245061705
 31
0.0
  0
LINE
  5
F5
330
3C4
100
AcDbEntity
  8
0
100
AcDbLine
 10
26.62288066379759
 20
-46.24689245061705
 30
0.0
 11
74.55709866379759
 21
-48.75901845061706
 31
0.0
  0
LINE
  5
F6
330
3C4
100
AcDbEntity
  8
0
100
AcDbLine
 10
74.55709866379759
 20
-48.75901845061706
 30
0.0
 11
73.86537799999998
 21
-61.95782399999983
 31
0.0
  0
SPLINE
  5
F7
330
3C4
100
AcDbEntity
  8
0
100
AcDbSpline
210
0.0
220
0.0
230
1.0
 70
     8
 71
     2
 72
    10
 73
     7
 74
     0
 42
0.000000001
 43
0.001
 40
0.0
 40
0.0
 40
0.0
 40
0.2
 40
0.4
 40
0.6
 40
0.8
 40
1.0
 40
1.0
 40
1.0
 10
85.53636699999998
 20
-52.65064400000001
 30
0.0
 10
89.35545241600306
 20
-41.43972352000142
 30
0.0
 10
92.1600000000032
 20
-24.83200000000086
 30
0.0
 10
87.16800000000302
 20
-9.856000000000341
 30
0.0
 10
79.61600000000276
 20
-1.024000000000036
 30
0.0
 10
75.90400000000263
 20
2.816000000000098
 30
0.0
 10
74.53589324693769
 20
0.0439804651110416
 30
0.0
  0
SPLINE
  5
F8
330
3C4
100
AcDbEntity
  8
0
100
AcDbSpline
210
0.0
220
0.0
230
1.0
 70
     8
 71
     2
 72
    12
 73
     9
 74
     0
 42
0.000000001
 43
0.001
 40
0.0
 40
0.0
 40
0.0
 40
0.1428571428571428
 40
0.2857142857142857
 40
0.4285714285714285
 40
0.5714285714285714
 40
0.7142857142857143
 40
0.8571428571428571
 40
1.0
 40
1.0
 40
1.0
 10
69.72678016578332
 20
-48.50587217654741
 30
0.0
 10
71.17733888000268
 20
-40.64280576000153
 30
0.0
 10
79.79008000000312
 20
-30.31040000000118
 30
0.0
 10
82.68800000000275
 20
-24.57600000000081
 30
0.0
 10
81.79200000000272
 20
-14.08000000000047
 30
0.0
 10
80.12800000000266
 20
-9.856000000000327
 30
0.0
 10
76.80000000000256
 20
-3.968000000000132
 30
0.0
 10
71.80800000000238
 20
3.584000000000119
 30
0.0
 10
69.24800000000229
 20
0.1280000000000042
 30
0.0
  0
SPLINE
  5
F9
330
3C4
100
AcDbEntity
  8
0
100
AcDbSpline
210
0.0
220
0.0
230
1.0
 70
    11
 71
     3
 72
    17
 73
    13
 74
     0
 42
0.000000001
 43
0.001
 40
0.0
 40
0.0
 40
0.0
 40
0.0
 40
0.25
 40
0.25
 40
0.5
 40
0.5
 40
0.75
 40
0.75
 40
1.0
 40
1.0
 40
1.0
 40
12.04536101718725
 40
12.04536101718725
 40
12.04536101718725
 40
12.04536101718725
 10
28.49376422018048
 20
-104.8835562935029
 30
0.0
 10
30.07942681687489
 20
-109.706776370093
 30
0.0
 10
36.68339385409061
 20
-112.6267949077494
 30
0.0
 10
59.92793680956467
 20
-114.6604289051947
 30
0.0
 10
66.33885159735132
 20
-114.0501881281562
 30
0.0
 10
68.73796779302388
 20
-109.5755910225567
 30
0.0
 10
67.4968639383159
 20
-108.4631886674681
 30
0.0
 10
60.13333232381134
 20
-108.4881763527131
 30
0.0
 10
51.98321633227081
 20
-107.9424369032892
 30
0.0
 10
39.36475015644201
 20
-106.8384641618188
 30
0.0
 10
32.62478145620987
 20
-106.248793308029
 30
0.0
 10
27.64680579259273
 20
-102.3073040059768
 30
0.0
 10
28.49376422018048
 20
-104.8835562935029
 30
0.0
  0
LINE
  5
FA
330
3C4
100
AcDbEntity
  8
0
100
AcDbLine
 10
29.35267722722963
 20
-77.85556583090423
 30
0.0
 11
29.49790150175108
 21
-85.42892880951185
 31
0.0
  0
ENDBLK
  5
3C6
330
3C4
100
AcDbEntity
  8
0
100
AcDbBlockEnd
  0
ENDSEC
  0
SECTION
  2
ENTITIES
  0
LINE
  5
1B
330
30B
100
AcDbEntity
  8
0
100
AcDbLine
 10
30.0
 20
30.0
 30
0.0
 11
90.0
 21
30.0
 31
0.0
  0
LINE
  5
1D
330
30B
100
AcDbEntity
  8
0
100
AcDbLine
 10
90.0
 20
0.0
 30
0.0
 11
30.0
 21
0.0
 31
0.0
  0
LINE
  5
1E
330
30B
100
AcDbEntity
  8
0
100
AcDbLine
 10
30.0
 20
0.0
 30
0.0
 11
30.0
 21
30.0
 31
0.0
  0
INSERT
  5
39
330
30B
100
AcDbEntity
  8
0
100
AcDbBlockReference
  2
door_70
 10
70.0
 20
0.0
 30
0.0
 41
0.0083333333333333
 42
0.0083333333333333
 43
0.0083333333333333
  0
LINE
  5
3A
330
30B
100
AcDbEntity
  8
0
100
AcDbLine
 10
90.0
 20
15.0
 30
0.0
 11
70.23033333333335
 21
14.94566666666666
 31
0.0
  0
LINE
  5
3B
330
30B
100
AcDbEntity
  8
0
100
AcDbLine
 10
70.23033333333335
 20
14.94566666666666
 30
0.0
 11
70.43033333333335
 21
4.845666666666659
 31
0.0
  0
INSERT
  5
92
330
30B
100
AcDbEntity
  8
0
100
AcDbBlockReference
  2
opel_vivaro_top_view
 10
72.0
 20
7.0
 30
0.0
 41
3.0
 42
3.0
 43
3.0
  0
LINE
  5
93
330
30B
100
AcDbEntity
  8
0
100
AcDbLine
 10
90.0
 20
30.0
 30
0.0
 11
90.0
 21
15.0
 31
0.0
  0
INSERT
  5
B8
330
30B
100
AcDbEntity
  8
0
100
AcDbBlockReference
  2
bed_double_180_200
 10
30.67406666666668
 20
22.81873333333333
 30
0.0
 41
0.0033333333333333
 42
0.0033333333333333
 43
0.0033333333333333
  0
INSERT
  5
FC
330
30B
100
AcDbEntity
  8
0
100
AcDbBlockReference
  2
desk
 10
40.63406666666668
 20
26.89873333333333
 30
0.0
 41
0.5
 42
0.5
 43
0.5
  0
LINE
  5
FD
330
30B
100
AcDbEntity
  8
0
100
AcDbLine
 10
30.0
 20
20.0
 30
0.0
 11
40.0
 21
20.0
 31
0.0
  0
LINE
  5
FE
330
30B
100
AcDbEntity
  8
0
100
AcDbLine
 10
50.0
 20
30.0
 30
0.0
 11
50.0
 21
20.0
 31
0.0
  0
INSERT
  5
FF
330
30B
100
AcDbEntity
  8
0
100
AcDbBlockReference
  2
door_70
 10
40.0
 20
20.0
 30
0.0
 41
0.005
 42
0.005
 43
0.005
  0
LINE
  5
100
330
30B
100
AcDbEntity
  8
0
100
AcDbLine
 10
50.0
 20
20.0
 30
0.0
 11
43.5
 21
19.75
 31
0.0
  0
LINE
  5
1B8
330
30B
100
AcDbEntity
  8
0
100
AcDbLine
 10
65.0
 20
30.0
 30
0.0
 11
65.0
 21
20.0
 31
0.0
  0
LINE
  5
1B9
330
30B
100
AcDbEntity
  8
0
100
AcDbLine
 10
65.0
 20
20.0
 30
0.0
 11
50.0
 21
20.0
 31
0.0
  0
INSERT
  5
1D5
330
30B
100
AcDbEntity
  8
0
100
AcDbBlockReference
  2
bed_single_90_200
 10
51.0
 20
23.0
 30
0.0
 41
0.0033333333333333
 42
0.0033333333333333
 43
0.0033333333333333
  0
INSERT
  5
1D6
330
30B
100
AcDbEntity
  8
0
100
AcDbBlockReference
  2
bed_single_90_200
 10
61.0
 20
23.0
 30
0.0
 41
0.0033333333333333
 42
0.0033333333333333
 43
0.0033333333333333
  0
INSERT
  5
1F6
330
30B
100
AcDbEntity
  8
0
100
AcDbBlockReference
  2
cafe65circ
 10
57.0
 20
27.0
 30
0.0
 41
0.0033333333333333
 42
0.0033333333333333
 43
0.0033333333333333
  0
INSERT
  5
1F7
330
30B
100
AcDbEntity
  8
0
100
AcDbBlockReference
  2
door_70
 10
57.5
 20
20.0
 30
0.0
 41
0.005
 42
0.005
 43
0.005
  0
LINE
  5
1F8
330
30B
100
AcDbEntity
  8
0
100
AcDbLine
 10
70.23033333333335
 20
14.94566666666666
 30
0.0
 11
29.94436090225564
 21
14.93692982456141
 31
0.0
  0
LINE
  5
1F9
330
30B
100
AcDbEntity
  8
0
100
AcDbLine
 10
64.97353383458648
 20
20.08339598997494
 30
0.0
 11
89.70977443609023
 21
20.08339598997494
 31
0.0
  0
INSERT
  5
1FA
330
30B
100
AcDbEntity
  8
0
100
AcDbBlockReference
  2
door_70
 10
90.0
 20
16.0
 30
0.0
 41
0.005
 42
0.005
 43
0.005
  0
INSERT
  5
1FB
330
30B
100
AcDbEntity
  8
0
100
AcDbBlockReference
  2
door_70
 10
35.0
 20
15.0
 30
0.0
 41
0.005
 42
0.005
 43
0.005
  0
INSERT
  5
1FC
330
30B
100
AcDbEntity
  8
0
100
AcDbBlockReference
  2
door_70
 10
63.0
 20
15.0
 30
0.0
 41
0.005
 42
0.005
 43
0.005
  0
INSERT
  5
1FD
330
30B
100
AcDbEntity
  8
0
100
AcDbBlockReference
  2
door_70
 10
83.0
 20
20.0
 30
0.0
 41
0.005
 42
0.005
 43
0.005
  0
INSERT
  5
207
330
30B
100
AcDbEntity
  8
0
100
AcDbBlockReference
  2
bath01
 10
65.0
 20
20.08339598997494
 30
0.0
  0
INSERT
  5
219
330
30B
100
AcDbEntity
  8
0
100
AcDbBlockReference
  2
shower
 10
66.3396090225564
 20
27.67028320802005
 30
0.0
 41
0.0033333333333333
 42
0.0033333333333333
 43
0.0033333333333333
  0
INSERT
  5
223
330
30B
100
AcDbEntity
  8
0
100
AcDbBlockReference
  2
toilet
 10
73.0
 20
20.0
 30
0.0
 41
0.0066666666666667
 42
0.0066666666666667
 43
0.0066666666666667
  0
INSERT
  5
23C
330
30B
100
AcDbEntity
  8
0
100
AcDbBlockReference
  2
sink
 10
90.0
 20
27.0
 30
0.0
 41
0.01
 42
0.01
 43
0.01
 50
90.0
  0
LINE
  5
23D
330
30B
100
AcDbEntity
  8
0
100
AcDbLine
 10
48.0
 20
15.0
 30
0.0
 11
48.0
 21
0.0
 31
0.0
  0
INSERT
  5
247
330
30B
100
AcDbEntity
  8
0
100
AcDbBlockReference
  2
AEG6440
 10
33.1698045112782
 20
2.469200501253134
 30
0.0
 41
0.1
 42
0.1
 43
0.1
  0
INSERT
  5
25B
330
30B
100
AcDbEntity
  8
0
100
AcDbBlockReference
  2
wlplS20BR_p
 10
46.0
 20
15.0
 30
0.0
 41
0.005
 42
0.005
 43
0.005
  0
INSERT
  5
2A5
330
30B
100
AcDbEntity
  8
0
100
AcDbBlockReference
  2
condor60
 10
42.83187969924813
 20
2.369591478696741
 30
0.0
 41
0.1
 42
0.1
 43
0.1
  0
INSERT
  5
2A6
330
30B
100
AcDbEntity
  8
0
100
AcDbBlockReference
  2
door_70
 10
48.0
 20
6.0
 30
0.0
 41
0.005
 42
0.005
 43
0.005
  0
INSERT
  5
2BF
330
30B
100
AcDbEntity
  8
0
100
AcDbBlockReference
  2
sofa185x70
 10
57.0
 20
15.0
 30
0.0
 41
0.05
 42
0.05
 43
0.05
  0
INSERT
  5
2E9
330
30B
100
AcDbEntity
  8
0
100
AcDbBlockReference
  2
dine6_80x180
 10
65.0
 20
6.0
 30
0.0
 41
0.05
 42
0.05
 43
0.05
  0
LINE
  5
2EA
330
30B
100
AcDbEntity
  8
0
100
AcDbLine
 10
54.00867609022558
 20
0.180849223057642
 30
0.0
 11
54.15211308270678
 21
2.188967117794483
 31
0.0
  0
LINE
  5
2EB
330
30B
100
AcDbEntity
  8
0
100
AcDbLine
 10
54.15211308270678
 20
2.188967117794483
 30
0.0
 11
59.45928180451129
 21
2.188967117794483
 31
0.0
  0
LINE
  5
2EC
330
30B
100
AcDbEntity
  8
0
100
AcDbLine
 10
59.45928180451129
 20
2.188967117794483
 30
0.0
 11
59.45928180451129
 21
0.0
 31
0.0
  0
ENDSEC
  0
SECTION
  2
OBJECTS
  0
DICTIONARY
  5
2F9
330
0
100
AcDbDictionary
281
     1
  3
ACAD_DETAILVIEWSTYLE
350
3CB
  3
ACAD_GROUP
350
2FA
  3
ACAD_LAYOUT
350
306
  3
ACAD_MATERIAL
350
32F
  3
ACAD_MLEADERSTYLE
350
3CA
  3
ACAD_MLINESTYLE
350
303
  3
ACAD_PLOTSETTINGS
350
305
  3
ACAD_PLOTSTYLENAME
350
2FB
  3
ACAD_SCALELIST
350
333
  3
ACAD_SECTIONVIEWSTYLE
350
3CC
  3
ACAD_TABLESTYLE
350
3C9
  3
ACAD_VISUALSTYLE
350
316
  3
AcDbVariableDictionary
350
3C7
  3
QCAD_OBJECTS
350
357
  0
SUN
  5
355
330
315
100
AcDbSun
 90
        1
290
     0
 63
     7
421
 16777215
 40
1.0
291
     1
 91
  2455826
 92
 54000000
292
     0
 70
     2
 71
   256
280
     1
  0
DICTIONARY
  5
3CB
102
{ACAD_REACTORS
330
2F9
102
}
330
2F9
100
AcDbDictionary
281
     1
  0
DICTIONARY
  5
2FA
102
{ACAD_REACTORS
330
2F9
102
}
330
2F9
100
AcDbDictionary
281
     1
  0
DICTIONARY
  5
306
102
{ACAD_REACTORS
330
2F9
102
}
330
2F9
100
AcDbDictionary
281
     1
  3
Layout1
350
30A
  3
Layout2
350
312
  3
Model
350
30E
  0
DICTIONARY
  5
32F
102
{ACAD_REACTORS
330
2F9
102
}
330
2F9
100
AcDbDictionary
281
     1
  3
ByBlock
350
331
  3
ByLayer
350
330
  3
Global
350
332
  0
DICTIONARY
  5
3CA
102
{ACAD_REACTORS
330
2F9
102
}
330
2F9
100
AcDbDictionary
281
     1
  0
DICTIONARY
  5
303
102
{ACAD_REACTORS
330
2F9
102
}
330
2F9
100
AcDbDictionary
281
     1
  3
Standard
350
304
  0
DICTIONARY
  5
305
102
{ACAD_REACTORS
330
2F9
102
}
330
2F9
100
AcDbDictionary
281
     1
  0
ACDBDICTIONARYWDFLT
  5
2FB
102
{ACAD_REACTORS
330
2F9
102
}
330
2F9
100
AcDbDictionary
281
     1
  3
Normal
350
2FC
100
AcDbDictionaryWithDefault
340
2FC
  0
DICTIONARY
  5
333
102
{ACAD_REACTORS
330
2F9
102
}
330
2F9
100
AcDbDictionary
281
     1
  3
A0
350
334
  3
A1
350
335
  3
A2
350
336
  3
A3
350
337
  3
A4
350
338
  3
A5
350
339
  3
A6
350
33A
  3
A7
350
33B
  3
A8
350
33C
  3
A9
350
33D
  3
B0
350
33E
  3
B1
350
33F
  3
B2
350
340
  3
B3
350
341
  3
B4
350
342
  3
B5
350
343
  3
B6
350
344
  3
B7
350
345
  3
B8
350
346
  3
B9
350
347
  3
C0
350
348
  3
C1
350
349
  3
C2
350
34A
  3
C3
350
34B
  3
C4
350
34C
  3
C5
350
34D
  3
C6
350
34E
  3
C7
350
34F
  3
C8
350
350
  3
C9
350
351
  3
D0
350
352
  3
D1
350
353
  3
D2
350
354
  0
DICTIONARY
  5
3CC
102
{ACAD_REACTORS
330
2F9
102
}
330
2F9
100
AcDbDictionary
281
     1
  0
DICTIONARY
  5
3C9
102
{ACAD_REACTORS
330
2F9
102
}
330
2F9
100
AcDbDictionary
281
     1
  0
DICTIONARY
  5
316
102
{ACAD_REACTORS
330
2F9
102
}
330
2F9
100
AcDbDictionary
281
     1
  3
2dWireframe
350
31B
  3
Basic
350
31E
  3
Brighten
350
322
  3
ColorChange
350
326
  3
Conceptual
350
320
  3
Dim
350
321
  3
EdgeColorOff
350
329
  3
Facepattern
350
325
  3
Flat
350
317
  3
FlatWithEdges
350
318
  3
Gouraud
350
319
  3
GouraudWithEdges
350
31A
  3
Hidden
350
31D
  3
JitterOff
350
327
  3
Linepattern
350
324
  3
OverhangOff
350
328
  3
Realistic
350
31F
  3
Shaded
350
32E
  3
Shaded with edges
350
32D
  3
Shades of Gray
350
32A
  3
Sketchy
350
32B
  3
Thicken
350
323
  3
Wireframe
350
31C
  3
X-Ray
350
32C
  0
DICTIONARY
  5
3C7
102
{ACAD_REACTORS
330
2F9
102
}
330
2F9
100
AcDbDictionary
281
     1
  3
CANNOSCALE
350
3C8
  0
DICTIONARY
  5
357
102
{ACAD_REACTORS
330
2F9
102
}
330
2F9
100
AcDbDictionary
281
     1
  3
Grid/DisplayGrid00
350
358
  3
Grid/DisplayGrid01
350
359
  3
Grid/DisplayGrid02
350
35A
  3
Grid/DisplayGrid03
350
35B
  3
Grid/GridSpacingX00
350
35C
  3
Grid/GridSpacingX01
350
35D
  3
Grid/GridSpacingX02
350
35E
  3
Grid/GridSpacingX03
350
35F
  3
Grid/GridSpacingY00
350
360
  3
Grid/GridSpacingY01
350
361
  3
Grid/GridSpacingY02
350
362
  3
Grid/GridSpacingY03
350
363
  3
Grid/IsometricGrid00
350
364
  3
Grid/IsometricGrid01
350
365
  3
Grid/IsometricGrid02
350
366
  3
Grid/IsometricGrid03
350
367
  3
Grid/IsometricProjection00
350
368
  3
Grid/IsometricProjection01
350
369
  3
Grid/IsometricProjection02
350
36A
  3
Grid/IsometricProjection03
350
36B
  3
Grid/MetaGridSpacingX00
350
36C
  3
Grid/MetaGridSpacingX01
350
36D
  3
Grid/MetaGridSpacingX02
350
36E
  3
Grid/MetaGridSpacingX03
350
36F
  3
Grid/MetaGridSpacingY00
350
370
  3
Grid/MetaGridSpacingY01
350
371
  3
Grid/MetaGridSpacingY02
350
372
  3
Grid/MetaGridSpacingY03
350
373
  3
MultiPageSettings/Columns
350
374
  3
MultiPageSettings/GlueMarginsBottom
350
375
  3
MultiPageSettings/GlueMarginsLeft
350
376
  3
MultiPageSettings/GlueMarginsRight
350
377
  3
MultiPageSettings/GlueMarginsTop
350
378
  3
MultiPageSettings/PrintCropMarks
350
379
  3
MultiPageSettings/Rows
350
37A
  3
PageSettings/OffsetX
350
37B
  3
PageSettings/OffsetY
350
37C
  3
PageSettings/PageOrientation
350
37D
  3
PageSettings/PaperHeight
350
37E
  3
PageSettings/PaperWidth
350
37F
  3
PageSettings/Scale
350
380
  3
PageSettings/ShowPaperBorders
350
381
  3
UnitSettings/PaperUnit
350
382
  0
LAYOUT
  5
30A
102
{ACAD_REACTORS
330
306
102
}
330
306
100
AcDbPlotSettings
  1

  2
none_device
  4

  6

 40
0.0
 41
0.0
 42
0.0
 43
0.0
 44
0.0
 45
0.0
 46
0.0
 47
0.0
 48
0.0
 49
0.0
140
0.0
141
0.0
142
1.0
143
1.0
 70
   688
 72
     0
 73
     0
 74
     5
  7

 75
    16
 76
     0
 77
     2
 78
   300
147
1.0
148
0.0
149
0.0
100
AcDbLayout
  1
Layout1
 70
     1
 71
     1
 10
0.0
 20
0.0
 11
12.0
 21
9.0
 12
0.0
 22
0.0
 32
0.0
 14
1.000000000000000E+20
 24
1.000000000000000E+20
 34
1.000000000000000E+20
 15
-1.000000000000000E+20
 25
-1.000000000000000E+20
 35
-1.000000000000000E+20
146
0.0
 13
0.0
 23
0.0
 33
0.0
 16
1.0
 26
0.0
 36
0.0
 17
0.0
 27
1.0
 37
0.0
 76
     0
330
307
  0
LAYOUT
  5
312
102
{ACAD_REACTORS
330
306
102
}
330
306
100
AcDbPlotSettings
  1

  2
none_device
  4

  6

 40
0.0
 41
0.0
 42
0.0
 43
0.0
 44
0.0
 45
0.0
 46
0.0
 47
0.0
 48
0.0
 49
0.0
140
0.0
141
0.0
142
1.0
143
1.0
 70
   688
 72
     0
 73
     0
 74
     5
  7

 75
    16
 76
     0
 77
     2
 78
   300
147
1.0
148
0.0
149
0.0
100
AcDbLayout
  1
Layout2
 70
     1
 71
     2
 10
0.0
 20
0.0
 11
0.0
 21
0.0
 12
0.0
 22
0.0
 32
0.0
 14
0.0
 24
0.0
 34
0.0
 15
0.0
 25
0.0
 35
0.0
146
0.0
 13
0.0
 23
0.0
 33
0.0
 16
1.0
 26
0.0
 36
0.0
 17
0.0
 27
1.0
 37
0.0
 76
     0
330
30F
  0
LAYOUT
  5
30E
102
{ACAD_REACTORS
330
306
102
}
330
306
100
AcDbPlotSettings
  1

  2
none_device
  4
Letter_(8.50_x_11.00_Inches)
  6

 40
6.35
 41
6.35
 42
6.35000508
 43
6.35000508
 44
215.9
 45
279.4
 46
0.0
 47
0.0
 48
0.0
 49
0.0
140
0.0
141
0.0
142
1.0
143
1.0
 70
  1712
 72
     0
 73
     0
 74
     0
  7

 75
     0
 76
     0
 77
     2
 78
   300
147
1.0
148
0.0
149
0.0
100
AcDbLayout
  1
Model
 70
     1
 71
     0
 10
0.0
 20
0.0
 11
12.0
 21
9.0
 12
0.0
 22
0.0
 32
0.0
 14
1.000000000000000E+20
 24
1.000000000000000E+20
 34
1.000000000000000E+20
 15
-1.000000000000000E+20
 25
-1.000000000000000E+20
 35
-1.000000000000000E+20
146
0.0
 13
0.0
 23
0.0
 33
0.0
 16
1.0
 26
0.0
 36
0.0
 17
0.0
 27
1.0
 37
0.0
 76
     0
330
30B
331
315
  0
MATERIAL
  5
331
102
{ACAD_REACTORS
330
32F
102
}
330
32F
100
AcDbMaterial
  1
ByBlock
 72
     1
 94
      127
  0
MATERIAL
  5
330
102
{ACAD_REACTORS
330
32F
102
}
330
32F
100
AcDbMaterial
  1
ByLayer
 72
     1
 94
      127
  0
MATERIAL
  5
332
102
{ACAD_REACTORS
330
32F
102
}
330
32F
100
AcDbMaterial
  1
Global
 72
     1
 94
      127
  0
MLINESTYLE
  5
304
102
{ACAD_REACTORS
330
303
102
}
330
303
100
AcDbMlineStyle
  2
Standard
 70
     0
  3

 62
   256
 51
90.0
 52
90.0
 71
     2
 49
0.5
 62
   256
  6
BYLAYER
 49
-0.5
 62
   256
  6
BYLAYER
  0
ACDBPLACEHOLDER
  5
2FC
102
{ACAD_REACTORS
330
2FB
102
}
330
2FB
  0
SCALE
  5
334
102
{ACAD_REACTORS
330
333
102
}
330
333
100
AcDbScale
 70
     0
300
1:1
140
1.0
141
1.0
290
     1
  0
SCALE
  5
335
102
{ACAD_REACTORS
330
333
102
}
330
333
100
AcDbScale
 70
     0
300
1:2
140
1.0
141
2.0
290
     0
  0
SCALE
  5
336
102
{ACAD_REACTORS
330
333
102
}
330
333
100
AcDbScale
 70
     0
300
1:4
140
1.0
141
4.0
290
     0
  0
SCALE
  5
337
102
{ACAD_REACTORS
330
333
102
}
330
333
100
AcDbScale
 70
     0
300
1:5
140
1.0
141
5.0
290
     0
  0
SCALE
  5
338
102
{ACAD_REACTORS
330
333
102
}
330
333
100
AcDbScale
 70
     0
300
1:8
140
1.0
141
8.0
290
     0
  0
SCALE
  5
339
102
{ACAD_REACTORS
330
333
102
}
330
333
100
AcDbScale
 70
     0
300
1:10
140
1.0
141
10.0
290
     0
  0
SCALE
  5
33A
102
{ACAD_REACTORS
330
333
102
}
330
333
100
AcDbScale
 70
     0
300
1:16
140
1.0
141
16.0
290
     0
  0
SCALE
  5
33B
102
{ACAD_REACTORS
330
333
102
}
330
333
100
AcDbScale
 70
     0
300
1:20
140
1.0
141
20.0
290
     0
  0
SCALE
  5
33C
102
{ACAD_REACTORS
330
333
102
}
330
333
100
AcDbScale
 70
     0
300
1:30
140
1.0
141
30.0
290
     0
  0
SCALE
  5
33D
102
{ACAD_REACTORS
330
333
102
}
330
333
100
AcDbScale
 70
     0
300
1:40
140
1.0
141
40.0
290
     0
  0
SCALE
  5
33E
102
{ACAD_REACTORS
330
333
102
}
330
333
100
AcDbScale
 70
     0
300
1:50
140
1.0
141
50.0
290
     0
  0
SCALE
  5
33F
102
{ACAD_REACTORS
330
333
102
}
330
333
100
AcDbScale
 70
     0
300
1:100
140
1.0
141
100.0
290
     0
  0
SCALE
  5
340
102
{ACAD_REACTORS
330
333
102
}
330
333
100
AcDbScale
 70
     0
300
2:1
140
2.0
141
1.0
290
     0
  0
SCALE
  5
341
102
{ACAD_REACTORS
330
333
102
}
330
333
100
AcDbScale
 70
     0
300
4:1
140
4.0
141
1.0
290
     0
  0
SCALE
  5
342
102
{ACAD_REACTORS
330
333
102
}
330
333
100
AcDbScale
 70
     0
300
8:1
140
8.0
141
1.0
290
     0
  0
SCALE
  5
343
102
{ACAD_REACTORS
330
333
102
}
330
333
100
AcDbScale
 70
     0
300
10:1
140
10.0
141
1.0
290
     0
  0
SCALE
  5
344
102
{ACAD_REACTORS
330
333
102
}
330
333
100
AcDbScale
 70
     0
300
100:1
140
100.0
141
1.0
290
     0
  0
SCALE
  5
345
102
{ACAD_REACTORS
330
333
102
}
330
333
100
AcDbScale
 70
     0
300
1/128" = 1'-0"
140
0.0078125
141
12.0
290
     0
  0
SCALE
  5
346
102
{ACAD_REACTORS
330
333
102
}
330
333
100
AcDbScale
 70
     0
300
1/64" = 1'-0"
140
0.015625
141
12.0
290
     0
  0
SCALE
  5
347
102
{ACAD_REACTORS
330
333
102
}
330
333
100
AcDbScale
 70
     0
300
1/32" = 1'-0"
140
0.03125
141
12.0
290
     0
  0
SCALE
  5
348
102
{ACAD_REACTORS
330
333
102
}
330
333
100
AcDbScale
 70
     0
300
1/16" = 1'-0"
140
0.0625
141
12.0
290
     0
  0
SCALE
  5
349
102
{ACAD_REACTORS
330
333
102
}
330
333
100
AcDbScale
 70
     0
300
3/32" = 1'-0"
140
0.09375
141
12.0
290
     0
  0
SCALE
  5
34A
102
{ACAD_REACTORS
330
333
102
}
330
333
100
AcDbScale
 70
     0
300
1/8" = 1'-0"
140
0.125
141
12.0
290
     0
  0
SCALE
  5
34B
102
{ACAD_REACTORS
330
333
102
}
330
333
100
AcDbScale
 70
     0
300
3/16" = 1'-0"
140
0.1875
141
12.0
290
     0
  0
SCALE
  5
34C
102
{ACAD_REACTORS
330
333
102
}
330
333
100
AcDbScale
 70
     0
300
1/4" = 1'-0"
140
0.25
141
12.0
290
     0
  0
SCALE
  5
34D
102
{ACAD_REACTORS
330
333
102
}
330
333
100
AcDbScale
 70
     0
300
3/8" = 1'-0"
140
0.375
141
12.0
290
     0
  0
SCALE
  5
34E
102
{ACAD_REACTORS
330
333
102
}
330
333
100
AcDbScale
 70
     0
300
1/2" = 1'-0"
140
0.5
141
12.0
290
     0
  0
SCALE
  5
34F
102
{ACAD_REACTORS
330
333
102
}
330
333
100
AcDbScale
 70
     0
300
3/4" = 1'-0"
140
0.75
141
12.0
290
     0
  0
SCALE
  5
350
102
{ACAD_REACTORS
330
333
102
}
330
333
100
AcDbScale
 70
     0
300
1" = 1'-0"
140
1.0
141
12.0
290
     0
  0
SCALE
  5
351
102
{ACAD_REACTORS
330
333
102
}
330
333
100
AcDbScale
 70
     0
300
1-1/2" = 1'-0"
140
1.5
141
12.0
290
     0
  0
SCALE
  5
352
102
{ACAD_REACTORS
330
333
102
}
330
333
100
AcDbScale
 70
     0
300
3" = 1'-0"
140
3.0
141
12.0
290
     0
  0
SCALE
  5
353
102
{ACAD_REACTORS
330
333
102
}
330
333
100
AcDbScale
 70
     0
300
6" = 1'-0"
140
6.0
141
12.0
290
     0
  0
SCALE
  5
354
102
{ACAD_REACTORS
330
333
102
}
330
333
100
AcDbScale
 70
     0
300
1'-0" = 1'-0"
140
12.0
141
12.0
290
     0
  0
VISUALSTYLE
  5
31B
102
{ACAD_REACTORS
330
316
102
}
330
316
100
AcDbVisualStyle
  2
2dWireframe
 70
     4
177
     3
291
     0
 70
    58
 90
        0
176
     1
 90
        2
176
     1
 90
        0
176
     1
 90
        0
176
     1
 40
0.6
176
     1
 40
30.0
176
     1
 62
     7
420
 16777215
176
     1
 90
        1
176
     1
 90
        4
176
     1
 62
     7
176
     1
 62
   257
176
     1
 90
        1
176
     1
 90
        1
176
     1
 40
1.0
176
     1
 90
        0
176
     1
 62
   257
176
     1
 40
1.0
176
     1
 90
        1
176
     1
 90
        6
176
     1
 90
        2
176
     1
 62
     7
176
     1
 90
        5
176
     1
 90
        0
176
     1
 90
        0
176
     1
290
     0
176
     1
 90
        1
176
     1
 40
0.0
176
     1
 90
        0
176
     1
290
     1
176
     1
290
     1
176
     1
290
     0
176
     1
290
     0
176
     1
290
     0
176
     1
290
     0
176
     1
290
     0
176
     1
290
     0
176
     1
290
     0
176
     1
 90
       50
176
     1
 40
0.0
176
     1
 40
1.0
176
     1
 90
        0
176
     1
 62
    18
420
        0
176
     1
 90
       50
176
     1
 90
        3
176
     1
 62
     5
420
      255
176
     1
290
     0
176
     1
 90
       50
176
     1
 90
       50
176
     1
 90
       50
176
     1
290
     0
176
     1
 90
       50
176
     1
 62
   256
176
     0
 40
1.0
176
     0
 90
        2
176
     1
  1
strokes_ogs.tif
176
     1
290
     0
176
     1
 40
1.0
176
     1
 40
1.0
176
     1
  0
VISUALSTYLE
  5
31E
102
{ACAD_REACTORS
330
316
102
}
330
316
100
AcDbVisualStyle
  2
Basic
 70
     7
177
     3
291
     1
 70
    58
 90
        1
176
     1
 90
        0
176
     1
 90
        1
176
     1
 90
        0
176
     1
 40
0.6
176
     1
 40
30.0
176
     1
 62
     7
420
 16777215
176
     1
 90
        0
176
     1
 90
        4
176
     1
 62
     7
176
     1
 62
   257
176
     1
 90
        1
176
     1
 90
        1
176
     1
 40
1.0
176
     1
 90
        8
176
     1
 62
     7
176
     1
 40
1.0
176
     1
 90
        1
176
     1
 90
        6
176
     1
 90
        2
176
     1
 62
     7
176
     1
 90
        5
176
     1
 90
        0
176
     1
 90
        0
176
     1
290
     0
176
     1
 90
        1
176
     1
 40
0.0
176
     1
 90
        0
176
     1
290
     0
176
     1
290
     1
176
     1
290
     1
176
     1
290
     0
176
     1
290
     0
176
     1
290
     0
176
     1
290
     0
176
     1
290
     0
176
     1
290
     0
176
     1
 90
       50
176
     1
 40
0.0
176
     1
 40
1.0
176
     1
 90
        0
176
     1
 62
    18
420
        0
176
     1
 90
       50
176
     1
 90
        3
176
     1
 62
     5
420
      255
176
     1
290
     0
176
     1
 90
       50
176
     1
 90
       50
176
     1
 90
       50
176
     1
290
     0
176
     1
 90
       50
176
     1
 62
   256
176
     0
 40
1.0
176
     0
 90
        2
176
     1
  1
strokes_ogs.tif
176
     1
290
     0
176
     1
 40
1.0
176
     1
 40
1.0
176
     1
  0
VISUALSTYLE
  5
322
102
{ACAD_REACTORS
330
316
102
}
330
316
100
AcDbVisualStyle
  2
Brighten
 70
    12
177
     3
291
     1
 70
    58
 90
        2
176
     1
 90
        2
176
     1
 90
        0
176
     1
 90
        0
176
     1
 40
0.6
176
     1
 40
30.0
176
     1
 62
     7
420
 16777215
176
     1
 90
        1
176
     1
 90
        4
176
     1
 62
     7
176
     1
 62
   257
176
     1
 90
        1
176
     1
 90
        1
176
     1
 40
1.0
176
     1
 90
        8
176
     1
 62
     7
176
     1
 40
1.0
176
     1
 90
        1
176
     1
 90
        6
176
     1
 90
        2
176
     1
 62
     7
176
     1
 90
        5
176
     1
 90
        0
176
     1
 90
        0
176
     1
290
     0
176
     1
 90
        1
176
     1
 40
50.0
176
     1
 90
        0
176
     1
290
     0
176
     1
290
     1
176
     1
290
     1
176
     1
290
     0
176
     1
290
     0
176
     1
290
     0
176
     1
290
     0
176
     1
290
     0
176
     1
290
     0
176
     1
 90
       50
176
     1
 40
0.0
176
     1
 40
1.0
176
     1
 90
        0
176
     1
 62
    18
420
        0
176
     1
 90
       50
176
     1
 90
        3
176
     1
 62
     5
420
      255
176
     1
290
     0
176
     1
 90
       50
176
     1
 90
       50
176
     1
 90
       50
176
     1
290
     0
176
     1
 90
       50
176
     1
 62
   256
176
     0
 40
1.0
176
     0
 90
        2
176
     1
  1
strokes_ogs.tif
176
     1
290
     0
176
     1
 40
1.0
176
     1
 40
1.0
176
     1
  0
VISUALSTYLE
  5
326
102
{ACAD_REACTORS
330
316
102
}
330
316
100
AcDbVisualStyle
  2
ColorChange
 70
    16
177
     3
291
     1
 70
    58
 90
        2
176
     1
 90
        2
176
     1
 90
        3
176
     1
 90
        0
176
     1
 40
0.6
176
     1
 40
30.0
176
     1
 62
     8
420
  8421504
176
     1
 90
        1
176
     1
 90
        4
176
     1
 62
     7
176
     1
 62
   257
176
     1
 90
        1
176
     1
 90
        1
176
     1
 40
1.0
176
     1
 90
        8
176
     1
 62
     8
420
  8421504
176
     1
 40
1.0
176
     1
 90
        1
176
     1
 90
        6
176
     1
 90
        2
176
     1
 62
     7
176
     1
 90
        5
176
     1
 90
        0
176
     1
 90
        0
176
     1
290
     0
176
     1
 90
        1
176
     1
 40
0.0
176
     1
 90
        0
176
     1
290
     0
176
     1
290
     1
176
     1
290
     1
176
     1
290
     0
176
     1
290
     0
176
     1
290
     0
176
     1
290
     0
176
     1
290
     0
176
     1
290
     0
176
     1
 90
       50
176
     1
 40
0.0
176
     1
 40
1.0
176
     1
 90
        0
176
     1
 62
    18
420
        0
176
     1
 90
       50
176
     1
 90
        3
176
     1
 62
     5
420
      255
176
     1
290
     0
176
     1
 90
       50
176
     1
 90
       50
176
     1
 90
       50
176
     1
290
     0
176
     1
 90
       50
176
     1
 62
   256
176
     0
 40
1.0
176
     0
 90
        2
176
     1
  1
strokes_ogs.tif
176
     1
290
     0
176
     1
 40
1.0
176
     1
 40
1.0
176
     1
  0
VISUALSTYLE
  5
320
102
{ACAD_REACTORS
330
316
102
}
330
316
100
AcDbVisualStyle
  2
Conceptual
 70
     9
177
     3
291
     0
 70
    58
 90
        3
176
     1
 90
        2
176
     1
 90
        0
176
     1
 90
        0
176
     1
 40
0.6
176
     1
 40
30.0
176
     1
 62
     7
420
 16777215
176
     1
 90
        2
176
     1
 90
        2
176
     1
 62
     7
176
     1
 62
   257
176
     1
 90
        1
176
     1
 90
        1
176
     1
 40
179.0
176
     1
 90
        8
176
     1
 62
     7
176
     1
 40
1.0
176
     1
 90
        1
176
     1
 90
        6
176
     1
 90
        2
176
     1
 62
     7
176
     1
 90
        3
176
     1
 90
        0
176
     1
 90
        0
176
     1
290
     0
176
     1
 90
        1
176
     1
 40
0.0
176
     1
 90
        0
176
     1
290
     0
176
     1
290
     1
176
     1
290
     1
176
     1
290
     0
176
     1
290
     0
176
     1
290
     0
176
     1
290
     0
176
     1
290
     0
176
     1
290
     0
176
     1
 90
       50
176
     1
 40
0.0
176
     1
 40
1.0
176
     1
 90
        0
176
     1
 62
    18
420
        0
176
     1
 90
       50
176
     1
 90
        3
176
     1
 62
     5
420
      255
176
     1
290
     0
176
     1
 90
       50
176
     1
 90
       50
176
     1
 90
       50
176
     1
290
     0
176
     1
 90
       50
176
     1
 62
   256
176
     0
 40
1.0
176
     0
 90
        2
176
     1
  1
strokes_ogs.tif
176
     1
290
     0
176
     1
 40
1.0
176
     1
 40
1.0
176
     1
  0
VISUALSTYLE
  5
321
102
{ACAD_REACTORS
330
316
102
}
330
316
100
AcDbVisualStyle
  2
Dim
 70
    11
177
     3
291
     1
 70
    58
 90
        2
176
     1
 90
        2
176
     1
 90
        0
176
     1
 90
        0
176
     1
 40
0.6
176
     1
 40
30.0
176
     1
 62
     7
420
 16777215
176
     1
 90
        1
176
     1
 90
        4
176
     1
 62
     7
176
     1
 62
   257
176
     1
 90
        1
176
     1
 90
        1
176
     1
 40
1.0
176
     1
 90
        8
176
     1
 62
     7
176
     1
 40
1.0
176
     1
 90
        1
176
     1
 90
        6
176
     1
 90
        2
176
     1
 62
     7
176
     1
 90
        5
176
     1
 90
        0
176
     1
 90
        0
176
     1
290
     0
176
     1
 90
        1
176
     1
 40
-50.0
176
     1
 90
        0
176
     1
290
     0
176
     1
290
     1
176
     1
290
     1
176
     1
290
     0
176
     1
290
     0
176
     1
290
     0
176
     1
290
     0
176
     1
290
     0
176
     1
290
     0
176
     1
 90
       50
176
     1
 40
0.0
176
     1
 40
1.0
176
     1
 90
        0
176
     1
 62
    18
420
        0
176
     1
 90
       50
176
     1
 90
        3
176
     1
 62
     5
420
      255
176
     1
290
     0
176
     1
 90
       50
176
     1
 90
       50
176
     1
 90
       50
176
     1
290
     0
176
     1
 90
       50
176
     1
 62
   256
176
     0
 40
1.0
176
     0
 90
        2
176
     1
  1
strokes_ogs.tif
176
     1
290
     0
176
     1
 40
1.0
176
     1
 40
1.0
176
     1
  0
VISUALSTYLE
  5
329
102
{ACAD_REACTORS
330
316
102
}
330
316
100
AcDbVisualStyle
  2
EdgeColorOff
 70
    22
177
     3
291
     1
 70
    58
 90
        2
176
     0
 90
        2
176
     0
 90
        0
176
     0
 90
        0
176
     0
 40
0.6
176
     0
 40
30.0
176
     0
 62
     7
420
 16777215
176
     0
 90
        1
176
     0
 90
        4
176
     0
 62
     7
176
     0
 62
   257
176
     0
 90
        1
176
     0
 90
        1
176
     0
 40
1.0
176
     0
 90
        8
176
     2
 62
     7
176
     0
 40
1.0
176
     0
 90
        1
176
     0
 90
        6
176
     0
 90
        2
176
     0
 62
     7
176
     0
 90
        5
176
     0
 90
        0
176
     0
 90
        0
176
     0
290
     0
176
     0
 90
        1
176
     0
 40
0.0
176
     0
 90
        0
176
     0
290
     0
176
     0
290
     1
176
     0
290
     1
176
     0
290
     0
176
     0
290
     0
176
     0
290
     0
176
     0
290
     0
176
     0
290
     0
176
     0
290
     0
176
     0
 90
       50
176
     0
 40
0.0
176
     0
 40
1.0
176
     0
 90
        0
176
     0
 62
    18
420
        0
176
     0
 90
       50
176
     0
 90
        3
176
     0
 62
     5
420
      255
176
     0
290
     0
176
     0
 90
       50
176
     0
 90
       50
176
     0
 90
       50
176
     0
290
     0
176
     0
 90
       50
176
     0
 62
   256
176
     0
 40
1.0
176
     0
 90
        2
176
     0
  1
strokes_ogs.tif
176
     0
290
     0
176
     0
 40
1.0
176
     0
 40
1.0
176
     0
  0
VISUALSTYLE
  5
325
102
{ACAD_REACTORS
330
316
102
}
330
316
100
AcDbVisualStyle
  2
Facepattern
 70
    15
177
     3
291
     1
 70
    58
 90
        2
176
     1
 90
        2
176
     1
 90
        0
176
     1
 90
        0
176
     1
 40
0.6
176
     1
 40
30.0
176
     1
 62
     7
420
 16777215
176
     1
 90
        1
176
     1
 90
        4
176
     1
 62
     7
176
     1
 62
   257
176
     1
 90
        1
176
     1
 90
        1
176
     1
 40
1.0
176
     1
 90
        8
176
     1
 62
     7
176
     1
 40
1.0
176
     1
 90
        1
176
     1
 90
        6
176
     1
 90
        2
176
     1
 62
     7
176
     1
 90
        5
176
     1
 90
        0
176
     1
 90
        0
176
     1
290
     0
176
     1
 90
        1
176
     1
 40
0.0
176
     1
 90
        0
176
     1
290
     0
176
     1
290
     1
176
     1
290
     1
176
     1
290
     0
176
     1
290
     0
176
     1
290
     0
176
     1
290
     0
176
     1
290
     0
176
     1
290
     0
176
     1
 90
       50
176
     1
 40
0.0
176
     1
 40
1.0
176
     1
 90
        0
176
     1
 62
    18
420
        0
176
     1
 90
       50
176
     1
 90
        3
176
     1
 62
     5
420
      255
176
     1
290
     0
176
     1
 90
       50
176
     1
 90
       50
176
     1
 90
       50
176
     1
290
     0
176
     1
 90
       50
176
     1
 62
   256
176
     0
 40
1.0
176
     0
 90
        2
176
     1
  1
strokes_ogs.tif
176
     1
290
     0
176
     1
 40
1.0
176
     1
 40
1.0
176
     1
  0
VISUALSTYLE
  5
317
102
{ACAD_REACTORS
330
316
102
}
330
316
100
AcDbVisualStyle
  2
Flat
 70
     0
177
     3
291
     1
 70
    58
 90
        2
176
     1
 90
        1
176
     1
 90
        1
176
     1
 90
        2
176
     1
 40
0.6
176
     1
 40
30.0
176
     1
 62
     7
420
 16777215
176
     1
 90
        0
176
     1
 90
        0
176
     1
 62
     7
176
     1
 62
   257
176
     1
 90
        1
176
     1
 90
        1
176
     1
 40
1.0
176
     1
 90
        8
176
     1
 62
     7
176
     1
 40
1.0
176
     1
 90
        1
176
     1
 90
        6
176
     1
 90
        2
176
     1
 62
     7
176
     1
 90
        5
176
     1
 90
        0
176
     1
 90
        0
176
     1
290
     0
176
     1
 90
       13
176
     1
 40
0.0
176
     1
 90
        0
176
     1
290
     0
176
     1
290
     1
176
     1
290
     1
176
     1
290
     0
176
     1
290
     0
176
     1
290
     0
176
     1
290
     0
176
     1
290
     0
176
     1
290
     0
176
     1
 90
       50
176
     1
 40
0.0
176
     1
 40
1.0
176
     1
 90
        0
176
     1
 62
    18
420
        0
176
     1
 90
       50
176
     1
 90
        3
176
     1
 62
     5
420
      255
176
     1
290
     0
176
     1
 90
       50
176
     1
 90
       50
176
     1
 90
       50
176
     1
290
     0
176
     1
 90
       50
176
     1
 62
   256
176
     0
 40
1.0
176
     0
 90
        2
176
     1
  1
strokes_ogs.tif
176
     1
290
     0
176
     1
 40
1.0
176
     1
 40
1.0
176
     1
  0
VISUALSTYLE
  5
318
102
{ACAD_REACTORS
330
316
102
}
330
316
100
AcDbVisualStyle
  2
FlatWithEdges
 70
     1
177
     3
291
     1
 70
    58
 90
        2
176
     1
 90
        1
176
     1
 90
        1
176
     1
 90
        2
176
     1
 40
0.6
176
     1
 40
30.0
176
     1
 62
     7
420
 16777215
176
     1
 90
        1
176
     1
 90
        0
176
     1
 62
     7
176
     1
 62
   257
176
     1
 90
        1
176
     1
 90
        1
176
     1
 40
1.0
176
     1
 90
        0
176
     1
 62
   257
176
     1
 40
1.0
176
     1
 90
        1
176
     1
 90
        6
176
     1
 90
        2
176
     1
 62
     7
176
     1
 90
        5
176
     1
 90
        0
176
     1
 90
        0
176
     1
290
     0
176
     1
 90
       13
176
     1
 40
0.0
176
     1
 90
        0
176
     1
290
     0
176
     1
290
     1
176
     1
290
     1
176
     1
290
     0
176
     1
290
     0
176
     1
290
     0
176
     1
290
     0
176
     1
290
     0
176
     1
290
     0
176
     1
 90
       50
176
     1
 40
0.0
176
     1
 40
1.0
176
     1
 90
        0
176
     1
 62
    18
420
        0
176
     1
 90
       50
176
     1
 90
        3
176
     1
 62
     5
420
      255
176
     1
290
     0
176
     1
 90
       50
176
     1
 90
       50
176
     1
 90
       50
176
     1
290
     0
176
     1
 90
       50
176
     1
 62
   256
176
     0
 40
1.0
176
     0
 90
        2
176
     1
  1
strokes_ogs.tif
176
     1
290
     0
176
     1
 40
1.0
176
     1
 40
1.0
176
     1
  0
VISUALSTYLE
  5
319
102
{ACAD_REACTORS
330
316
102
}
330
316
100
AcDbVisualStyle
  2
Gouraud
 70
     2
177
     3
291
     1
 70
    58
 90
        2
176
     1
 90
        2
176
     1
 90
        1
176
     1
 90
        2
176
     1
 40
0.6
176
     1
 40
30.0
176
     1
 62
     7
420
 16777215
176
     1
 90
        0
176
     1
 90
        0
176
     1
 62
     7
176
     1
 62
   257
176
     1
 90
        1
176
     1
 90
        1
176
     1
 40
1.0
176
     1
 90
        0
176
     1
 62
     7
176
     1
 40
1.0
176
     1
 90
        1
176
     1
 90
        6
176
     1
 90
        2
176
     1
 62
     7
176
     1
 90
        5
176
     1
 90
        0
176
     1
 90
        0
176
     1
290
     0
176
     1
 90
       13
176
     1
 40
0.0
176
     1
 90
        0
176
     1
290
     0
176
     1
290
     1
176
     1
290
     1
176
     1
290
     0
176
     1
290
     0
176
     1
290
     0
176
     1
290
     0
176
     1
290
     0
176
     1
290
     0
176
     1
 90
       50
176
     1
 40
0.0
176
     1
 40
1.0
176
     1
 90
        0
176
     1
 62
    18
420
        0
176
     1
 90
       50
176
     1
 90
        3
176
     1
 62
     5
420
      255
176
     1
290
     0
176
     1
 90
       50
176
     1
 90
       50
176
     1
 90
       50
176
     1
290
     0
176
     1
 90
       50
176
     1
 62
   256
176
     0
 40
1.0
176
     0
 90
        2
176
     1
  1
strokes_ogs.tif
176
     1
290
     0
176
     1
 40
1.0
176
     1
 40
1.0
176
     1
  0
VISUALSTYLE
  5
31A
102
{ACAD_REACTORS
330
316
102
}
330
316
100
AcDbVisualStyle
  2
GouraudWithEdges
 70
     3
177
     3
291
     1
 70
    58
 90
        2
176
     1
 90
        2
176
     1
 90
        1
176
     1
 90
        2
176
     1
 40
0.6
176
     1
 40
30.0
176
     1
 62
     7
420
 16777215
176
     1
 90
        1
176
     1
 90
        0
176
     1
 62
     7
176
     1
 62
   257
176
     1
 90
        1
176
     1
 90
        1
176
     1
 40
1.0
176
     1
 90
        0
176
     1
 62
   257
176
     1
 40
1.0
176
     1
 90
        1
176
     1
 90
        6
176
     1
 90
        2
176
     1
 62
     7
176
     1
 90
        5
176
     1
 90
        0
176
     1
 90
        0
176
     1
290
     0
176
     1
 90
       13
176
     1
 40
0.0
176
     1
 90
        0
176
     1
290
     0
176
     1
290
     1
176
     1
290
     1
176
     1
290
     0
176
     1
290
     0
176
     1
290
     0
176
     1
290
     0
176
     1
290
     0
176
     1
290
     0
176
     1
 90
       50
176
     1
 40
0.0
176
     1
 40
1.0
176
     1
 90
        0
176
     1
 62
    18
420
        0
176
     1
 90
       50
176
     1
 90
        3
176
     1
 62
     5
420
      255
176
     1
290
     0
176
     1
 90
       50
176
     1
 90
       50
176
     1
 90
       50
176
     1
290
     0
176
     1
 90
       50
176
     1
 62
   256
176
     0
 40
1.0
176
     0
 90
        2
176
     1
  1
strokes_ogs.tif
176
     1
290
     0
176
     1
 40
1.0
176
     1
 40
1.0
176
     1
  0
VISUALSTYLE
  5
31D
102
{ACAD_REACTORS
330
316
102
}
330
316
100
AcDbVisualStyle
  2
Hidden
 70
     6
177
     3
291
     0
 70
    58
 90
        1
176
     1
 90
        2
176
     1
 90
        2
176
     1
 90
        0
176
     1
 40
0.6
176
     1
 40
30.0
176
     1
 62
     7
420
 16777215
176
     1
 90
        2
176
     1
 90
        2
176
     1
 62
     7
176
     1
 62
   257
176
     1
 90
        2
176
     1
 90
        1
176
     1
 40
40.0
176
     1
 90
        0
176
     1
 62
   257
176
     1
 40
1.0
176
     1
 90
        1
176
     1
 90
        6
176
     1
 90
        2
176
     1
 62
     7
176
     1
 90
        3
176
     1
 90
        0
176
     1
 90
        0
176
     1
290
     0
176
     1
 90
        1
176
     1
 40
0.0
176
     1
 90
        0
176
     1
290
     0
176
     1
290
     1
176
     1
290
     1
176
     1
290
     0
176
     1
290
     0
176
     1
290
     0
176
     1
290
     0
176
     1
290
     0
176
     1
290
     0
176
     1
 90
       50
176
     1
 40
0.0
176
     1
 40
1.0
176
     1
 90
        0
176
     1
 62
    18
420
        0
176
     1
 90
       50
176
     1
 90
        3
176
     1
 62
     5
420
      255
176
     1
290
     0
176
     1
 90
       50
176
     1
 90
       50
176
     1
 90
       50
176
     1
290
     0
176
     1
 90
       50
176
     1
 62
   256
176
     0
 40
1.0
176
     0
 90
        2
176
     1
  1
strokes_ogs.tif
176
     1
290
     0
176
     1
 40
1.0
176
     1
 40
1.0
176
     1
  0
VISUALSTYLE
  5
327
102
{ACAD_REACTORS
330
316
102
}
330
316
100
AcDbVisualStyle
  2
JitterOff
 70
    20
177
     3
291
     1
 70
    58
 90
        2
176
     0
 90
        2
176
     0
 90
        0
176
     0
 90
        0
176
     0
 40
0.6
176
     0
 40
30.0
176
     0
 62
     7
420
 16777215
176
     0
 90
        1
176
     0
 90
        4
176
     0
 62
     7
176
     0
 62
   257
176
     0
 90
        1
176
     0
 90
        1
176
     0
 40
1.0
176
     0
 90
       10
176
     2
 62
     7
176
     0
 40
1.0
176
     0
 90
        1
176
     0
 90
        6
176
     0
 90
        2
176
     0
 62
     7
176
     0
 90
        5
176
     0
 90
        0
176
     0
 90
        0
176
     0
290
     0
176
     0
 90
        1
176
     0
 40
0.0
176
     0
 90
        0
176
     0
290
     0
176
     0
290
     1
176
     0
290
     1
176
     0
290
     0
176
     0
290
     0
176
     0
290
     0
176
     0
290
     0
176
     0
290
     0
176
     0
290
     0
176
     0
 90
       50
176
     0
 40
0.0
176
     0
 40
1.0
176
     0
 90
        0
176
     0
 62
    18
420
        0
176
     0
 90
       50
176
     0
 90
        3
176
     0
 62
     5
420
      255
176
     0
290
     0
176
     0
 90
       50
176
     0
 90
       50
176
     0
 90
       50
176
     0
290
     0
176
     0
 90
       50
176
     0
 62
   256
176
     0
 40
1.0
176
     0
 90
        2
176
     0
  1
strokes_ogs.tif
176
     0
290
     0
176
     0
 40
1.0
176
     0
 40
1.0
176
     0
  0
VISUALSTYLE
  5
324
102
{ACAD_REACTORS
330
316
102
}
330
316
100
AcDbVisualStyle
  2
Linepattern
 70
    14
177
     3
291
     1
 70
    58
 90
        2
176
     1
 90
        2
176
     1
 90
        0
176
     1
 90
        0
176
     1
 40
0.6
176
     1
 40
30.0
176
     1
 62
     7
420
 16777215
176
     1
 90
        1
176
     1
 90
        4
176
     1
 62
     7
176
     1
 62
   257
176
     1
 90
        7
176
     1
 90
        7
176
     1
 40
1.0
176
     1
 90
        8
176
     1
 62
     7
176
     1
 40
1.0
176
     1
 90
        1
176
     1
 90
        6
176
     1
 90
        2
176
     1
 62
     7
176
     1
 90
        5
176
     1
 90
        0
176
     1
 90
        0
176
     1
290
     0
176
     1
 90
        1
176
     1
 40
0.0
176
     1
 90
        0
176
     1
290
     0
176
     1
290
     1
176
     1
290
     1
176
     1
290
     0
176
     1
290
     0
176
     1
290
     0
176
     1
290
     0
176
     1
290
     0
176
     1
290
     0
176
     1
 90
       50
176
     1
 40
0.0
176
     1
 40
1.0
176
     1
 90
        0
176
     1
 62
    18
420
        0
176
     1
 90
       50
176
     1
 90
        3
176
     1
 62
     5
420
      255
176
     1
290
     0
176
     1
 90
       50
176
     1
 90
       50
176
     1
 90
       50
176
     1
290
     0
176
     1
 90
       50
176
     1
 62
   256
176
     0
 40
1.0
176
     0
 90
        2
176
     1
  1
strokes_ogs.tif
176
     1
290
     0
176
     1
 40
1.0
176
     1
 40
1.0
176
     1
  0
VISUALSTYLE
  5
328
102
{ACAD_REACTORS
330
316
102
}
330
316
100
AcDbVisualStyle
  2
OverhangOff
 70
    21
177
     3
291
     1
 70
    58
 90
        2
176
     0
 90
        2
176
     0
 90
        0
176
     0
 90
        0
176
     0
 40
0.6
176
     0
 40
30.0
176
     0
 62
     7
420
 16777215
176
     0
 90
        1
176
     0
 90
        4
176
     0
 62
     7
176
     0
 62
   257
176
     0
 90
        1
176
     0
 90
        1
176
     0
 40
1.0
176
     0
 90
        9
176
     2
 62
     7
176
     0
 40
1.0
176
     0
 90
        1
176
     0
 90
        6
176
     0
 90
        2
176
     0
 62
     7
176
     0
 90
        5
176
     0
 90
        0
176
     0
 90
        0
176
     0
290
     0
176
     0
 90
        1
176
     0
 40
0.0
176
     0
 90
        0
176
     0
290
     0
176
     0
290
     1
176
     0
290
     1
176
     0
290
     0
176
     0
290
     0
176
     0
290
     0
176
     0
290
     0
176
     0
290
     0
176
     0
290
     0
176
     0
 90
       50
176
     0
 40
0.0
176
     0
 40
1.0
176
     0
 90
        0
176
     0
 62
    18
420
        0
176
     0
 90
       50
176
     0
 90
        3
176
     0
 62
     5
420
      255
176
     0
290
     0
176
     0
 90
       50
176
     0
 90
       50
176
     0
 90
       50
176
     0
290
     0
176
     0
 90
       50
176
     0
 62
   256
176
     0
 40
1.0
176
     0
 90
        2
176
     0
  1
strokes_ogs.tif
176
     0
290
     0
176
     0
 40
1.0
176
     0
 40
1.0
176
     0
  0
VISUALSTYLE
  5
31F
102
{ACAD_REACTORS
330
316
102
}
330
316
100
AcDbVisualStyle
  2
Realistic
 70
     8
177
     3
291
     0
 70
    58
 90
        2
176
     1
 90
        3
176
     1
 90
        0
176
     1
 90
        2
176
     1
 40
0.6
176
     1
 40
30.0
176
     1
 62
     7
420
 16777215
176
     1
 90
        0
176
     1
 90
        0
176
     1
 62
     7
176
     1
 62
   257
176
     1
 90
        1
176
     1
 90
        1
176
     1
 40
1.0
176
     1
 90
        8
176
     1
 62
   257
176
     1
 40
1.0
176
     1
 90
        1
176
     1
 90
        6
176
     1
 90
        2
176
     1
 62
     7
176
     1
 90
        3
176
     1
 90
        0
176
     1
 90
        0
176
     1
290
     0
176
     1
 90
       13
176
     1
 40
0.0
176
     1
 90
        0
176
     1
290
     0
176
     1
290
     1
176
     1
290
     1
176
     1
290
     0
176
     1
290
     0
176
     1
290
     0
176
     1
290
     0
176
     1
290
     0
176
     1
290
     0
176
     1
 90
       50
176
     1
 40
0.0
176
     1
 40
1.0
176
     1
 90
        0
176
     1
 62
    18
420
        0
176
     1
 90
       50
176
     1
 90
        3
176
     1
 62
     5
420
      255
176
     1
290
     0
176
     1
 90
       50
176
     1
 90
       50
176
     1
 90
       50
176
     1
290
     0
176
     1
 90
       50
176
     1
 62
   256
176
     0
 40
1.0
176
     0
 90
        2
176
     1
  1
strokes_ogs.tif
176
     1
290
     0
176
     1
 40
1.0
176
     1
 40
1.0
176
     1
  0
VISUALSTYLE
  5
32E
102
{ACAD_REACTORS
330
316
102
}
330
316
100
AcDbVisualStyle
  2
Shaded
 70
    27
177
     3
291
     0
 70
    58
 90
        2
176
     1
 90
        2
176
     1
 90
        1
176
     1
 90
        2
176
     1
 40
0.6
176
     1
 40
30.0
176
     1
 62
     7
420
 16777215
176
     1
 90
        0
176
     1
 90
        4
176
     1
 62
     7
176
     1
 62
   257
176
     1
 90
        1
176
     1
 90
        1
176
     1
 40
1.0
176
     1
 90
        8
176
     1
 62
   257
176
     1
 40
1.0
176
     1
 90
        1
176
     1
 90
        6
176
     1
 90
        2
176
     1
 62
     8
420
  7895160
176
     1
 90
        3
176
     1
 90
        0
176
     1
 90
        0
176
     1
290
     0
176
     1
 90
        5
176
     1
 40
0.0
176
     1
 90
        0
176
     1
290
     0
176
     1
290
     1
176
     1
290
     1
176
     1
290
     0
176
     1
290
     0
176
     1
290
     0
176
     1
290
     0
176
     1
290
     0
176
     1
290
     0
176
     1
 90
       50
176
     1
 40
0.0
176
     1
 40
1.0
176
     1
 90
        0
176
     1
 62
    18
420
        0
176
     1
 90
       50
176
     1
 90
        3
176
     1
 62
     5
420
      255
176
     1
290
     0
176
     1
 90
       50
176
     1
 90
       50
176
     1
 90
       50
176
     1
290
     0
176
     1
 90
       50
176
     1
 62
   256
176
     0
 40
1.0
176
     0
 90
        2
176
     1
  1
strokes_ogs.tif
176
     1
290
     0
176
     1
 40
1.0
176
     1
 40
1.0
176
     1
  0
VISUALSTYLE
  5
32D
102
{ACAD_REACTORS
330
316
102
}
330
316
100
AcDbVisualStyle
  2
Shaded with edges
 70
    26
177
     3
291
     0
 70
    58
 90
        2
176
     1
 90
        2
176
     1
 90
        1
176
     1
 90
        2
176
     1
 40
0.6
176
     1
 40
30.0
176
     1
 62
     7
420
 16777215
176
     1
 90
        1
176
     1
 90
       10
176
     1
 62
     7
176
     1
 62
   257
176
     1
 90
        2
176
     1
 90
        1
176
     1
 40
1.0
176
     1
 90
        8
176
     1
 62
   257
176
     1
 40
1.0
176
     1
 90
        1
176
     1
 90
        6
176
     1
 90
        2
176
     1
 62
     7
176
     1
 90
        3
176
     1
 90
        0
176
     1
 90
        0
176
     1
290
     0
176
     1
 90
        5
176
     1
 40
0.0
176
     1
 90
        0
176
     1
290
     0
176
     1
290
     1
176
     1
290
     1
176
     1
290
     0
176
     1
290
     0
176
     1
290
     0
176
     1
290
     0
176
     1
290
     0
176
     1
290
     0
176
     1
 90
       50
176
     1
 40
0.0
176
     1
 40
1.0
176
     1
 90
        0
176
     1
 62
    18
420
        0
176
     1
 90
       50
176
     1
 90
        3
176
     1
 62
     5
420
      255
176
     1
290
     0
176
     1
 90
       50
176
     1
 90
       50
176
     1
 90
       50
176
     1
290
     0
176
     1
 90
       50
176
     1
 62
   256
176
     0
 40
1.0
176
     0
 90
        2
176
     1
  1
strokes_ogs.tif
176
     1
290
     0
176
     1
 40
1.0
176
     1
 40
1.0
176
     1
  0
VISUALSTYLE
  5
32A
102
{ACAD_REACTORS
330
316
102
}
330
316
100
AcDbVisualStyle
  2
Shades of Gray
 70
    23
177
     3
291
     0
 70
    58
 90
        2
176
     1
 90
        2
176
     1
 90
        3
176
     1
 90
        0
176
     1
 40
0.6
176
     1
 40
30.0
176
     1
 62
     7
420
 16777215
176
     1
 90
        2
176
     1
 90
        2
176
     1
 62
     7
176
     1
 62
     7
176
     1
 90
        1
176
     1
 90
        1
176
     1
 40
40.0
176
     1
 90
        8
176
     1
 62
     7
176
     1
 40
1.0
176
     1
 90
        1
176
     1
 90
        6
176
     1
 90
        2
176
     1
 62
     7
176
     1
 90
        3
176
     1
 90
        0
176
     1
 90
        0
176
     1
290
     0
176
     1
 90
        1
176
     1
 40
0.0
176
     1
 90
        0
176
     1
290
     0
176
     1
290
     1
176
     1
290
     1
176
     1
290
     0
176
     1
290
     0
176
     1
290
     0
176
     1
290
     0
176
     1
290
     0
176
     1
290
     0
176
     1
 90
       50
176
     1
 40
0.0
176
     1
 40
1.0
176
     1
 90
        0
176
     1
 62
    18
420
        0
176
     1
 90
       50
176
     1
 90
        3
176
     1
 62
     5
420
      255
176
     1
290
     0
176
     1
 90
       50
176
     1
 90
       50
176
     1
 90
       50
176
     1
290
     0
176
     1
 90
       50
176
     1
 62
   256
176
     0
 40
1.0
176
     0
 90
        2
176
     1
  1
strokes_ogs.tif
176
     1
290
     0
176
     1
 40
1.0
176
     1
 40
1.0
176
     1
  0
VISUALSTYLE
  5
32B
102
{ACAD_REACTORS
330
316
102
}
330
316
100
AcDbVisualStyle
  2
Sketchy
 70
    24
177
     3
291
     0
 70
    58
 90
        1
176
     1
 90
        2
176
     1
 90
        2
176
     1
 90
        0
176
     1
 40
0.6
176
     1
 40
30.0
176
     1
 62
     7
420
 16777215
176
     1
 90
        2
176
     1
 90
        2
176
     1
 62
     7
176
     1
 62
     7
176
     1
 90
        1
176
     1
 90
        1
176
     1
 40
40.0
176
     1
 90
       11
176
     1
 62
     7
176
     1
 40
1.0
176
     1
 90
        1
176
     1
 90
        6
176
     1
 90
        2
176
     1
 62
     7
176
     1
 90
        6
176
     1
 90
        0
176
     1
 90
        0
176
     1
290
     0
176
     1
 90
        1
176
     1
 40
0.0
176
     1
 90
        0
176
     1
290
     0
176
     1
290
     1
176
     1
290
     1
176
     1
290
     0
176
     1
290
     0
176
     1
290
     0
176
     1
290
     0
176
     1
290
     0
176
     1
290
     0
176
     1
 90
       50
176
     1
 40
0.0
176
     1
 40
1.0
176
     1
 90
        0
176
     1
 62
    18
420
        0
176
     1
 90
       50
176
     1
 90
        3
176
     1
 62
     5
420
      255
176
     1
290
     0
176
     1
 90
       50
176
     1
 90
       50
176
     1
 90
       50
176
     1
290
     0
176
     1
 90
       50
176
     1
 62
   256
176
     0
 40
1.0
176
     0
 90
        2
176
     1
  1
strokes_ogs.tif
176
     1
290
     0
176
     1
 40
1.0
176
     1
 40
1.0
176
     1
  0
VISUALSTYLE
  5
323
102
{ACAD_REACTORS
330
316
102
}
330
316
100
AcDbVisualStyle
  2
Thicken
 70
    13
177
     3
291
     1
 70
    58
 90
        2
176
     1
 90
        2
176
     1
 90
        0
176
     1
 90
        0
176
     1
 40
0.6
176
     1
 40
30.0
176
     1
 62
     7
420
 16777215
176
     1
 90
        1
176
     1
 90
        4
176
     1
 62
     7
176
     1
 62
   257
176
     1
 90
        1
176
     1
 90
        1
176
     1
 40
1.0
176
     1
 90
       12
176
     1
 62
     7
176
     1
 40
1.0
176
     1
 90
        1
176
     1
 90
        6
176
     1
 90
        2
176
     1
 62
     7
176
     1
 90
        5
176
     1
 90
        0
176
     1
 90
        0
176
     1
290
     0
176
     1
 90
        1
176
     1
 40
0.0
176
     1
 90
        0
176
     1
290
     0
176
     1
290
     1
176
     1
290
     1
176
     1
290
     0
176
     1
290
     0
176
     1
290
     0
176
     1
290
     0
176
     1
290
     0
176
     1
290
     0
176
     1
 90
       50
176
     1
 40
0.0
176
     1
 40
1.0
176
     1
 90
        0
176
     1
 62
    18
420
        0
176
     1
 90
       50
176
     1
 90
        3
176
     1
 62
     5
420
      255
176
     1
290
     0
176
     1
 90
       50
176
     1
 90
       50
176
     1
 90
       50
176
     1
290
     0
176
     1
 90
       50
176
     1
 62
   256
176
     0
 40
1.0
176
     0
 90
        2
176
     1
  1
strokes_ogs.tif
176
     1
290
     0
176
     1
 40
1.0
176
     1
 40
1.0
176
     1
  0
VISUALSTYLE
  5
31C
102
{ACAD_REACTORS
330
316
102
}
330
316
100
AcDbVisualStyle
  2
Wireframe
 70
     5
177
     3
291
     0
 70
    58
 90
        0
176
     1
 90
        2
176
     1
 90
        0
176
     1
 90
        0
176
     1
 40
0.6
176
     1
 40
30.0
176
     1
 62
     7
420
 16777215
176
     1
 90
        1
176
     1
 90
        4
176
     1
 62
     7
176
     1
 62
   257
176
     1
 90
        1
176
     1
 90
        1
176
     1
 40
1.0
176
     1
 90
        0
176
     1
 62
   257
176
     1
 40
1.0
176
     1
 90
        1
176
     1
 90
        6
176
     1
 90
        2
176
     1
 62
     7
176
     1
 90
        3
176
     1
 90
        0
176
     1
 90
        0
176
     1
290
     0
176
     1
 90
        1
176
     1
 40
0.0
176
     1
 90
        0
176
     1
290
     0
176
     1
290
     1
176
     1
290
     1
176
     1
290
     0
176
     1
290
     0
176
     1
290
     0
176
     1
290
     0
176
     1
290
     0
176
     1
290
     0
176
     1
 90
       50
176
     1
 40
0.0
176
     1
 40
1.0
176
     1
 90
        0
176
     1
 62
    18
420
        0
176
     1
 90
       50
176
     1
 90
        3
176
     1
 62
     5
420
      255
176
     1
290
     0
176
     1
 90
       50
176
     1
 90
       50
176
     1
 90
       50
176
     1
290
     0
176
     1
 90
       50
176
     1
 62
   256
176
     0
 40
1.0
176
     0
 90
        2
176
     1
  1
strokes_ogs.tif
176
     1
290
     0
176
     1
 40
1.0
176
     1
 40
1.0
176
     1
  0
VISUALSTYLE
  5
32C
102
{ACAD_REACTORS
330
316
102
}
330
316
100
AcDbVisualStyle
  2
X-Ray
 70
    25
177
     3
291
     0
 70
    58
 90
        2
176
     1
 90
        2
176
     1
 90
        1
176
     1
 90
        1
176
     1
 40
0.5
176
     1
 40
30.0
176
     1
 62
     7
420
 16777215
176
     1
 90
        1
176
     1
 90
        0
176
     1
 62
     7
176
     1
 62
   257
176
     1
 90
        1
176
     1
 90
        1
176
     1
 40
1.0
176
     1
 90
        8
176
     1
 62
     7
176
     1
 40
1.0
176
     1
 90
        1
176
     1
 90
        6
176
     1
 90
        2
176
     1
 62
     7
176
     1
 90
        3
176
     1
 90
        0
176
     1
 90
        0
176
     1
290
     0
176
     1
 90
       13
176
     1
 40
0.0
176
     1
 90
        0
176
     1
290
     0
176
     1
290
     1
176
     1
290
     1
176
     1
290
     0
176
     1
290
     0
176
     1
290
     0
176
     1
290
     0
176
     1
290
     0
176
     1
290
     0
176
     1
 90
       50
176
     1
 40
0.0
176
     1
 40
1.0
176
     1
 90
        0
176
     1
 62
    18
420
        0
176
     1
 90
       50
176
     1
 90
        3
176
     1
 62
     5
420
      255
176
     1
290
     0
176
     1
 90
       50
176
     1
 90
       50
176
     1
 90
       50
176
     1
290
     0
176
     1
 90
       50
176
     1
 62
   256
176
     0
 40
1.0
176
     0
 90
        2
176
     1
  1
strokes_ogs.tif
176
     1
290
     0
176
     1
 40
1.0
176
     1
 40
1.0
176
     1
  0
DICTIONARYVAR
  5
3C8
102
{ACAD_REACTORS
330
3C7
102
}
330
3C7
100
DictionaryVariables
280
     0
  1
1:1
  0
XRECORD
  5
358
102
{ACAD_REACTORS
330
357
102
}
330
357
100
AcDbXrecord
280
     1
290
     1
  0
XRECORD
  5
359
102
{ACAD_REACTORS
330
357
102
}
330
357
100
AcDbXrecord
280
     1
290
     1
  0
XRECORD
  5
35A
102
{ACAD_REACTORS
330
357
102
}
330
357
100
AcDbXrecord
280
     1
290
     1
  0
XRECORD
  5
35B
102
{ACAD_REACTORS
330
357
102
}
330
357
100
AcDbXrecord
280
     1
290
     1
  0
XRECORD
  5
35C
102
{ACAD_REACTORS
330
357
102
}
330
357
100
AcDbXrecord
280
     1
1000
auto
  0
XRECORD
  5
35D
102
{ACAD_REACTORS
330
357
102
}
330
357
100
AcDbXrecord
280
     1
1000
auto
  0
XRECORD
  5
35E
102
{ACAD_REACTORS
330
357
102
}
330
357
100
AcDbXrecord
280
     1
1000
auto
  0
XRECORD
  5
35F
102
{ACAD_REACTORS
330
357
102
}
330
357
100
AcDbXrecord
280
     1
1000
auto
  0
XRECORD
  5
360
102
{ACAD_REACTORS
330
357
102
}
330
357
100
AcDbXrecord
280
     1
1000
auto
  0
XRECORD
  5
361
102
{ACAD_REACTORS
330
357
102
}
330
357
100
AcDbXrecord
280
     1
1000
auto
  0
XRECORD
  5
362
102
{ACAD_REACTORS
330
357
102
}
330
357
100
AcDbXrecord
280
     1
1000
auto
  0
XRECORD
  5
363
102
{ACAD_REACTORS
330
357
102
}
330
357
100
AcDbXrecord
280
     1
1000
auto
  0
XRECORD
  5
364
102
{ACAD_REACTORS
330
357
102
}
330
357
100
AcDbXrecord
280
     1
290
     0
  0
XRECORD
  5
365
102
{ACAD_REACTORS
330
357
102
}
330
357
100
AcDbXrecord
280
     1
290
     0
  0
XRECORD
  5
366
102
{ACAD_REACTORS
330
357
102
}
330
357
100
AcDbXrecord
280
     1
290
     0
  0
XRECORD
  5
367
102
{ACAD_REACTORS
330
357
102
}
330
357
100
AcDbXrecord
280
     1
290
     0
  0
XRECORD
  5
368
102
{ACAD_REACTORS
330
357
102
}
330
357
100
AcDbXrecord
280
     1
 90
        0
  0
XRECORD
  5
369
102
{ACAD_REACTORS
330
357
102
}
330
357
100
AcDbXrecord
280
     1
 90
        0
  0
XRECORD
  5
36A
102
{ACAD_REACTORS
330
357
102
}
330
357
100
AcDbXrecord
280
     1
 90
        0
  0
XRECORD
  5
36B
102
{ACAD_REACTORS
330
357
102
}
330
357
100
AcDbXrecord
280
     1
 90
        0
  0
XRECORD
  5
36C
102
{ACAD_REACTORS
330
357
102
}
330
357
100
AcDbXrecord
280
     1
1000
auto
  0
XRECORD
  5
36D
102
{ACAD_REACTORS
330
357
102
}
330
357
100
AcDbXrecord
280
     1
1000
auto
  0
XRECORD
  5
36E
102
{ACAD_REACTORS
330
357
102
}
330
357
100
AcDbXrecord
280
     1
1000
auto
  0
XRECORD
  5
36F
102
{ACAD_REACTORS
330
357
102
}
330
357
100
AcDbXrecord
280
     1
1000
auto
  0
XRECORD
  5
370
102
{ACAD_REACTORS
330
357
102
}
330
357
100
AcDbXrecord
280
     1
1000
auto
  0
XRECORD
  5
371
102
{ACAD_REACTORS
330
357
102
}
330
357
100
AcDbXrecord
280
     1
1000
auto
  0
XRECORD
  5
372
102
{ACAD_REACTORS
330
357
102
}
330
357
100
AcDbXrecord
280
     1
1000
auto
  0
XRECORD
  5
373
102
{ACAD_REACTORS
330
357
102
}
330
357
100
AcDbXrecord
280
     1
1000
auto
  0
XRECORD
  5
374
102
{ACAD_REACTORS
330
357
102
}
330
357
100
AcDbXrecord
280
     1
 90
        1
  0
XRECORD
  5
375
102
{ACAD_REACTORS
330
357
102
}
330
357
100
AcDbXrecord
280
     1
 40
0.0
  0
XRECORD
  5
376
102
{ACAD_REACTORS
330
357
102
}
330
357
100
AcDbXrecord
280
     1
 40
0.0
  0
XRECORD
  5
377
102
{ACAD_REACTORS
330
357
102
}
330
357
100
AcDbXrecord
280
     1
 40
0.0
  0
XRECORD
  5
378
102
{ACAD_REACTORS
330
357
102
}
330
357
100
AcDbXrecord
280
     1
 40
0.0
  0
XRECORD
  5
379
102
{ACAD_REACTORS
330
357
102
}
330
357
100
AcDbXrecord
280
     1
290
     0
  0
XRECORD
  5
37A
102
{ACAD_REACTORS
330
357
102
}
330
357
100
AcDbXrecord
280
     1
 90
        1
  0
XRECORD
  5
37B
102
{ACAD_REACTORS
330
357
102
}
330
357
100
AcDbXrecord
280
     1
 40
0.0
  0
XRECORD
  5
37C
102
{ACAD_REACTORS
330
357
102
}
330
357
100
AcDbXrecord
280
     1
 40
0.0
  0
XRECORD
  5
37D
102
{ACAD_REACTORS
330
357
102
}
330
357
100
AcDbXrecord
280
     1
1000
Portrait
  0
XRECORD
  5
37E
102
{ACAD_REACTORS
330
357
102
}
330
357
100
AcDbXrecord
280
     1
 40
297.0
  0
XRECORD
  5
37F
102
{ACAD_REACTORS
330
357
102
}
330
357
100
AcDbXrecord
280
     1
 40
210.0
  0
XRECORD
  5
380
102
{ACAD_REACTORS
330
357
102
}
330
357
100
AcDbXrecord
280
     1
1000
1:1
  0
XRECORD
  5
381
102
{ACAD_REACTORS
330
357
102
}
330
357
100
AcDbXrecord
280
     1
290
     1
  0
XRECORD
  5
382
102
{ACAD_REACTORS
330
357
102
}
330
357
100
AcDbXrecord
280
     1
 90
        4
  0
ENDSEC
  0
EOF
